The Inner Me


"The inner me" by tiivis (Felipe Jaime M. Uy/Maranon)


Intro x3

E|-------0-------0--|
B|---1-------1------|
G|-------2-------0--|
D|---3-------2------|
A|------------------|
E|------------------|

End of intro into Chorus

E|-------0-------0--------0-------|
B|---1-------1------1--3----3--0--|
G|-------2-------0--0--0-------0--|
D|---3-------2--------------------|
A|--------------------------------|
E|--------------------------------|


Pre Chorus x4

E|---------------3---------------------3--0--|
B|---1-----1-----------1-----1-----1---------|
G|------2-----2--2--2-----2-----2-----2------|
D|---3-----------------------3---------------|
A|-------------------------------------------|
E|-------------------------------------------|


E|----------------------------------0-----------|
B|---1------1-------0h1--1h3--3--1-----1-----1--|
G|------0-------0-------------------------0-----|
D|----------------------------------------------|
A|---3------------------------------------------|
E|----------------------------------------------|


Chorus

2 Chords.

Easy F and C

E|------------| E|-------------|
B|---1--------| B|---1---------|
G|------2-----| G|-------------|
D|---------3--| D|------2------|
A|------------| A|---------3---|
E|------------| E|-------------|
Guitar Tab Creator is intended to store guitar tab created through the tool. It currently does not support in-line text editing. Any text you place in here will be lost. If you need to comment on your tab, please use the "Tab Notes" section located below.