Chocobo Theme

(/) Slide Up  (\) Slide Down  (h) Hammer On  (p) Pull Off  (b) Bend (r) Release (v) Vibrato


Part 1

e |-----------------------------------|
B |-----------------------------------|
G |-----------------------------------|
D |-----------------------------------|2x
A |-----2-----0--------2-------0---0--|
E |-3-------1------3-------1-----1----|


e |-----------------------------------|----------------------------0-1--------|
B |-3---0-----3-0----0-----0----------|----------------------0-1-3------------|
G |-------0--------0---0--------------|-0-0h1-0---0--------0------------------|
D |---------3-------------------------|---------3--------3--------------------|
A |-----2-----0--------2-------0---0--|-------2-----0--------2---------0---0--|
E |-3-------1------3-------1-----1----|-3---------1------3---------1-----1----|


e |-----------------------------------|----------------------------0-1--------|
B |-3---0-----3-0----0-----0----------|----------------------0-1-3------------|
G |-------0--------0---0--------------|-0-0h1-0---0--------0------------------|
D |---------2-------------------------|---------3--------3--------------------|
A |-----2-----0--------2-------0---0--|-------2-----0--------2---------0---0--|
E |-3-------1------3-------1-----1----|-3---------1------3---------1-----1----|


Part 2

e |---------------------3-----------|----------------------------------|
B |-5-------------5-3-------3-----0-|-----------------0-0h1-0---0------|
G |-5---5-2-----5-------------------|-5---2---------5---------2---0----|
D |---------4-7---------------4-2---|-------4---4-7--------------------|
A |-3-----3-5-------2-------2-------|-3-----4-5-------2-----0----------|
E |---------------------------------|---------------------------3---1--|

e |---------------------3-----------|-------------------------------0-2--|
B |-5-------------5-3-------3-----0-|-------------------------0-1-3------|
G |-5---5-2-----5-------------------|-2-2h4-2-0-2---0-2-0h1h2------------|
D |---------4-7---------------4-2---|-----------------0-------0----------|
A |-3-----3-5-------2-------2-------|------------------------------------|
E |---------------------------------|-1-------1--------------------------|



REPEAT WHOLE SONG.

Guitar Tab Creator is intended to store guitar tab created through the tool. It currently does not support in-line text editing. Any text you place in here will be lost. If you need to comment on your tab, please use the "Tab Notes" section located below.