Stairway to Heaven - Led Zepplin

(/) Slide Up  (\) Slide Down  (h) Hammer On  (p) Pull Off  (b) Bend (r) Release (v) Vibrato

E|-----------5--7--------7--8--------8--2--------2--0-------------0-------------------
B|--------5--------5-----------5-----------3-----------1-----1-------1-----0--1--1----
G|-----5--------------5-----------5-----------2-----------2-------------2--0--2--2----
D|--7-----------6-----------5-----------4-----------3-------------------------2--2----
A|-------------------------------------------------------------------------2--0--0----
E|------------------------------------------------------------------------------------



E|----------------------------7--------7--8--------8--2--------2--0-------------0-----------------
B|-------------------------5-----5-----------5-----------3-----------1-----1-------1-----0--1--1--
G|----------------------5-----------5-----------5-----------2-----------2-------------2--0--2--2--
D|-------------------7--------6-----------5-----------4-----------3-------------------------2--2--
A|--0--7/8--7v----0----------------------------------------------------------------------2--0--0--
E|------------------------------------------------------------------------------------------------



E|--
B|--
G|--
D|--
A|--
E|--
http://www.guitartabcreator.com
Guitar Tab Creator is intended to store guitar tab created through the tool. It currently does not support in-line text editing. Any text you place in here will be lost. If you need to comment on your tab, please use the "Tab Notes" section located below.