Natural Minor Scale (Aeolian) Harmonic Minor Scale & Melodic Minor Scale

(/) Slide Up  (\) Slide Down  (h) Hammer On  (p) Pull Off  (b) Bend (r) Release (v) Vibrato

E|------------------------------------------------
B|--------------------------------------6--8--10--
G|-----------------------------5--7--9------------
D|--------------------5--7--9---------------------
A|-----------5--7--8------------------------------
E|--5--7--8---------------------------------------



E|---------------------------------------------------
B|--------------------------------------6--9--10-----
G|-----------------------------5--7--9---------------
D|--------------------6--7--9------------------------
A|-----------5--7--8---------------------------------
E|--5--7--8------------------------------------------



E|--------------------------------------------
B|--------------------------------------7--9--
G|-----------------------------5--7--9--------
D|--------------------6--7--9-----------------
A|-----------5--7--9--------------------------
E|--5--7--8-----------------------------------
http://www.guitartabcreator.com
Guitar Tab Creator is intended to store guitar tab created through the tool. It currently does not support in-line text editing. Any text you place in here will be lost. If you need to comment on your tab, please use the "Tab Notes" section located below.