A Major Pentatonic 5 positions

(/) Slide Up  (\) Slide Down  (h) Hammer On  (p) Pull Off  (b) Bend (r) Release (v) Vibrato

E|-----------------------------2--5--
B|-----------------------2--5--------
G|-----------------2--4--------------
D|-----------2--4--------------------
A|-----2--4--------------------------
E|--5--------------------------------



E|--------------------------------5--7--
B|--------------------------5--7--------
G|--------------------4--6--------------
D|--------------4--7--------------------
A|--------4--7--------------------------
E|--5--7--------------------------------



E|---------------------------------7--9--
B|--------------------------7--10--------
G|--------------------6--9---------------
D|--------------7--9---------------------
A|--------7--9---------------------------
E|--7--9---------------------------------



E|--------------------------------------9--12--
B|------------------------------10--12---------
G|-----------------------9--11-----------------
D|----------------9--11------------------------
A|---------9--12-------------------------------
E|--9--12--------------------------------------



E|------------------------------------------12--14--
B|----------------------------------12--14----------
G|--------------------------11--14------------------
D|------------------11--14--------------------------
A|----------12--14----------------------------------
E|--12--14------------------------------------------



E|--------------------------------------14--17--
B|------------------------------14--17----------
G|----------------------14--16------------------
D|--------------14--16--------------------------
A|------14--16----------------------------------
E|--17------------------------------------------



E|--
B|--
G|--
D|--
A|--
E|--
http://www.guitartabcreator.com
Guitar Tab Creator is intended to store guitar tab created through the tool. It currently does not support in-line text editing. Any text you place in here will be lost. If you need to comment on your tab, please use the "Tab Notes" section located below.