Hello solo

(/) Slide Up  (\) Slide Down  (h) Hammer On  (p) Pull Off  (b) Bend (r) Release (v) Vibrato
E|-----------------0--1-----0--------------------------
B|--------0--1--3--------3-----1/3p0--1p0-----3/5--3v--
G|-----2-----------------------------------2-----------
D|--2--------------------------------------------------
A|-----------------------------------------------------
E|-----------------------------------------------------



E|-------5-----7--8--5--7-----5--------
B|--3/5-----5--------------8-----4/5v--
G|-------------------------------------
D|-------------------------------------
A|-------------------------------------
E|-------------------------------------



E|-------------------------
B|--7-8/7-8/7--8-----------
G|--8/9-8/9-8--9--7--5--5--
D|-------------------------
A|-------------------------
E|-------------------------
http://www.guitartabcreator.com
Guitar Tab Creator is intended to store guitar tab created through the tool. It currently does not support in-line text editing. Any text you place in here will be lost. If you need to comment on your tab, please use the "Tab Notes" section located below.