Chromatic: 1-2-3-4 Moving up 1 Semi-tone

(/) Slide Up  (\) Slide Down  (h) Hammer On  (p) Pull Off  (b) Bend (r) Release (v) Vibrato
E|-----------------------------------------1-2-3-4-5-4-3-2-
B|---------------------------------1-2-3-4-----------------
G|-------------------------1-2-3-4-------------------------
D|-----------------1-2-3-4---------------------------------
A|---------1-2-3-4-----------------------------------------
E|-1-2-3-4-------------------------------------------------



E|---------------------------------------------------------
B|-5-4-3-2-------------------------------------------------
G|---------5-4-3-2-----------------------------------------
D|-----------------5-4-3-2---------------------------------
A|-------------------------5-4-3-2-----------------3-4-5-6-
E|---------------------------------5-4-3-2-3-4-5-6---------



E|-------------------------3-4-5-6-7-6-5-4-----------------
B|-----------------3-4-5-6-----------------7-6-5-4---------
G|---------3-4-5-6---------------------------------7-6-5-4-
D|-3-4-5-6-------------------------------------------------
A|---------------------------------------------------------
E|---------------------------------------------------------



E|--------------------------------------------------------------------------------------
B|--------------------------------------------------------------------------------------
G|--------------------------------------------------------------------------5--6--7--8--
D|--7--6--5--4--------------------------------------------------5--6--7--8--------------
A|--------------7--6--5--4--------------------------5--6--7--8--------------------------
E|--------------------------7--6--5--4--5--6--7--8--------------------------------------



E|--------------------------5--6--7--8--9--8--7--6--------------------------------------
B|--------------5--6--7--8--------------------------9--8--7--6--------------------------
G|--5--6--7--8--------------------------------------------------9--8--7--6--------------
D|--------------------------------------------------------------------------9--8--7--6--
A|--------------------------------------------------------------------------------------
E|--------------------------------------------------------------------------------------



E|-------------------------------------------------------------------------------------------
B|------------------------------------------------------------------------------7--8--9--10--
G|-----------------------------------------------------------------7--8--9--10---------------
D|----------------------------------------------------7--8--9--10----------------------------
A|--9--8--7--6---------------------------7--8--9--10-----------------------------------------
E|--------------9--8--7--6--7--8--9--10------------------------------------------------------
http://www.guitartabcreator.com
Guitar Tab Creator is intended to store guitar tab created through the tool. It currently does not support in-line text editing. Any text you place in here will be lost. If you need to comment on your tab, please use the "Tab Notes" section located below.