Guns N Roses Don't cry

(/) Slide Up  (\) Slide Down  (h) Hammer On  (p) Pull Off  (b) Bend (r) Release (v) Vibrato
Intro
E|--------------0--------------------1-----------------------3--------------------------
B|-----------------1--------------3-----3-----------------------3-----------------------
G|-----------2--------2--------2-----------2--------------0--------0--------0--------0--
D|--------2--------------0--0-----------------0--------0-----------------2--------0-----
A|-----0--------------------------------------------2-----------------3--------2--------
E|--3--------------------------------------------3--------------------------------------



E|-----------|--------0--------------------1-----------------------------------|--
B|-----------|-----------1--------------3-----3--------------------------------|--
G|-----------|-----2--------2--------2-----------2--------------0--------------|--
D|-----------|--2--------------0--0-----------------0--------0--------------2--|--
A|--3--2--0--|--------------------------------------------2-----------------0--|--
E|-----------|-----------------------------------------3-----------2--3--4-----|--


Riff
E|-----------0--------------------1-----------------------3-----------------------------------|--
B|--------------1--------------3-----3-----------------------3--------------------------------|--
G|--------2--------2--------2-----------2--------------0--------0--------0--------0-----------|--
D|-----2--------------0--0-----------------0--------0-----------------2--------0-----------0--|--
A|--0--------------------------------------------2-----------------3--------2--------3--2-----|--
E|--------------------------------------------3-----------------------------------------------|--



E|--------0--------------------1-----------------------3-----------------------------------|--
B|-----------1--------------3-----3-----------------------3--------------------------------|--
G|-----2--------2--------2-----------2--------------0--------0--------0--------0-----------|--
D|--2--------------0--0-----------------0--------0-----------------2--------0-----------0--|--
A|--------------------------------------------2-----------------3--------2--------3--2-----|--
E|-----------------------------------------3-----------------------------------------------|--


Solo
E|---------------------------------------------------------------------------------
B|------------------8----------8---------------------------------------------------
G|--7b5--7--7b5--7-----7b5--7-----7--5---------------------------------------------
D|--------------------------------------7--5---------------------------------------
A|--------------------------------------------5--3--5--7--7--8--8--10--10--12--12--
E|---------------------------------------------------------------------------------



E|-----------------------------------------------------------------------------------------
B|----------------------13/13--------------------------------------------------------------
G|--------------12--14---------14--12------------------------------------------------------
D|--10--12--14-------------------------14--13--14--13--10--12--10----------10--------------
A|-----------------------------------------------------------------12--10------12--10--12--
E|-----------------------------------------------------------------------------------------



E|------15--15--15--------------15--15--15--------------------------------------------------
B|--15--------------15--15--15--------------15--13--12----------12--15--13--12--13----------
G|----------------------------------------------------------13----------------------14------
D|------------------------------------------------------14------------------------------15--
A|------------------------------------------------------------------------------------------
E|------------------------------------------------------------------------------------------



E|--13-----------------------5-----------------|--
B|------13--15b15--15b13--8-----8--5--------8--|--
G|------------------------------------7--5--7--|--
D|---------------------------------------------|--
A|---------------------------------------------|--
E|---------------------------------------------|--
http://www.guitartabcreator.com
Guitar Tab Creator is intended to store guitar tab created through the tool. It currently does not support in-line text editing. Any text you place in here will be lost. If you need to comment on your tab, please use the "Tab Notes" section located below.