Twist of Fate

(/) Slide Up  (\) Slide Down  (h) Hammer On  (p) Pull Off  (b) Bend (r) Release (v) Vibrato
E|-0-2-0---7-----0-------7---5---4-2-0---4---5---4-2-0---5---4---2-0-2-0---
B|-------------0-----0-----0---0-----------0---0-----------0---0-----------
G|-----------4-----4-------------------------------------------------------
D|-------------------------------------4-----------------------------------
A|-------7-------------6-------------------------------0-------------------
E|-------------------------------------------------------------------------



E|-------2-------7---5---4-2-0---4---5---4-2-0---5---4---2---2-----
B|-----0-----0-----0---0-----------0---0-----------0---0---0---0---
G|---4-----4-------------------------------------------------------
D|-----------------------------------------------------------------
A|-------------6---------------4---------------0-------------------
E|-0-------------------------------------------------------------0-



E|-------------------------------------------------
B|-------0-----------0-----------0-----------0-----
G|-----4-----------4-----------4-----------4-------
D|---6-------6---6-------6---6-------6---6-------6-
A|-7-------7---6-------6---4-------4---0-------0---
E|-------------------------------------------------



E|-----------------------------------------------------
B|-----------0-----------------0-----------------0-----
G|--------4-----------------4-----------------4--------
D|-----6-----------6-----6-----------6-----6-----------
A|--7-----------7-----6-----------6-----4--------------
E|-----------------------------------------------------



E|-----------------7-----------------------------7-----------------------------7-----------------------------7--------------7--
B|--------5-----5--------5-----5--------4-----4--------4-----4--------5-----5--------5-----5--------5-----5--------5-----5-----
G|-----4-----4--------4-----4--------4-----4--------4-----4--------4-----4--------4-----4--------4-----4--------4-----4--------
D|-----------------------------------------------------------------------------------------------------------------------------
A|--------------------------------6-----------------------------4-----------------------------0--------------------------------
E|--0--------------------------------------------------------------------------------------------------------------------------



E|-----------------7-----------------------------7-----------------------------7-----------------------------0--
B|--------5-----5--------5-----5--------4-----4--------4-----4--------5-----5--------5-----5--------5-----5-----
G|-----4-----4--------4-----4--------4-----4--------4-----4--------4-----4--------4-----4--------4-----4--------
D|--------------------------------------------------------------------------------------------------------------
A|--------------------------------6-----------------------------4-----------------------------0-----------------
E|--0-----------------------------------------------------------------------------------------------------------



E|--0--2--0-----7--------------0-----------7-----5-----4--2--0-----4-----5-----4--2--0-----5-----4-----0--2-----0--2-----0--
B|--------------------0-----0--------0--------0-----0-----------------0-----0-----------------0-----0--------0--------------
G|-----------------4-----4--------4-----------------------------------------------------------------------------------------
D|--------------------------------------------------------------------------------------------------------------------------
A|-----------7--------------------------6-----------------------4-----------------------0-----------------------------------
E|--------------------------------------------------------------------------------------------------------------------0-----



E|-----12-----11-----9--7--9------12-----11-----9--7--------12-----11-----9--7-------------------------------------
B|---------0------0-------------------0------0--------9---------0------0--------9-----10-----9-----7---------------
G|----------------------------------------------------------------------------------------9-----9-----9--9--11--9--
D|-----------------------------------------------------------------------------------------------------------------
A|----------------------------11---------------------------------------------------0-------------------------------
E|--0----------------------------------------------------9---------------------------------------------------------
http://www.guitartabcreator.com
Guitar Tab Creator is intended to store guitar tab created through the tool. It currently does not support in-line text editing. Any text you place in here will be lost. If you need to comment on your tab, please use the "Tab Notes" section located below.