The song

(/) Slide Up  (\) Slide Down  (h) Hammer On  (p) Pull Off  (b) Bend (r) Release (v) Vibrato
E|--------------------|--------------------|----------------------|--------------------|--
B|--------------7-----|--------------7-----|----------------5-----|--------------5-----|--
G|-----7--7-----------|-----7--7-----------|-------5--5-----------|-----5--5-----------|--
D|-----------------7--|-----------------7--|-------------------5--|-----------------5--|--
A|--5--------5--------|--5--------5--------|--5\3--------3--------|--3--------3--------|--
E|--------------------|--------------------|----------------------|--------------------|--



E|----------------------|--------------------|----------------|------------------|--
B|----------------3-----|--------------3-----|-----2-------3--|-------5-------7--|--
G|-------4--4-----------|-----4--4-----------|----------------|------------------|--
D|-------------------3--|-----------------3--|--2-----2\4-----|--4\5-----5\7-----|--
A|--3\2--------2--------|--2--------2--------|--0-----0-------|--0-------0-------|--
E|----------------------|--------------------|----------------|------------------|--
http://www.guitartabcreator.com
Guitar Tab Creator is intended to store guitar tab created through the tool. It currently does not support in-line text editing. Any text you place in here will be lost. If you need to comment on your tab, please use the "Tab Notes" section located below.