Stairway to Heaven solo

(/) Slide Up  (\) Slide Down  (h) Hammer On  (p) Pull Off  (b) Bend (r) Release (v) Vibrato


E|------5-----------------------------8-8-8b10--8-5-------8--10-8---------------
B|--------8-5--------------------8b10---------------8/10----------10-8----8-10v-
G|-7b9--------7-5---7-5------------------------------------------------10-------
D|----------------7-----7-5-----------------------------------------------------
A|--------------------------8v--------------------------------------------------
E|------------------------------------------------------------------------------



E|-------5-------------------------------------5--------------------------
B|-----5---5-------------------------------------8-5----------------------
G|-7b9-------7-5---7-5-------------5---5-5--0--------7-5---7-5------------
D|---------------7-----7-5---5-7v----7-------------------7-----7-5-7-5----
A|-------------------------7-------------------------------------------8v-
E|------------------------------------------------------------------------



E|--------------------------------------------------------------------15b17--15-12--------------
B|-------------------------------------------13--15b17--15-13-15-13v---------------15b13----13--
G|----------10-------------------12----12-14---------------------------------------------14-----
D|-------10----12-10----10-12/14----14----------------------------------------------------------
A|-8/12--------------12-------------------------------------------------------------------------
E|----------------------------------------------------------------------------------------------



E|-------------------------15b17v------------------------------------------15------------
B|-15-15b17r15-13----13-15----------17-15-17-15-13----13-15-13----13-15b17----15-13------
G|----------------14-------------------------------14----------14-------------------14v--
D|---------------------------------------------------------------------------------------
A|---------------------------------------------------------------------------------------
E|---------------------------------------------------------------------------------------



E|-----------17-----------------------------
B|--------20----20--------------------------
G|-19v-21----------19-17-19-17----17-19b21v-
D|-----------------------------19-----------
A|------------------------------------------
E|------------------------------------------



E|-----------------------------
B|-----------------------------
G|-14b17-14b17-14-12-14-12-14v-
D|-----------------------------
A|-----------------------------
E|-----------------------------



E|---------------------------------
B|---------------------------------
G|-10b12---10-9-7---7---7-9-7------
D|----------------9---9-------9-7v-
A|---------------------------------
E|---------------------------------



E|----20-17----20b
B|-17-------17----
G|----------------
D|----------------
A|----------------
E|----------------
http://www.guitartabcreator.com
Guitar Tab Creator is intended to store guitar tab created through the tool. It currently does not support in-line text editing. Any text you place in here will be lost. If you need to comment on your tab, please use the "Tab Notes" section located below.