She's Thunderstorms

(/) Slide Up  (\) Slide Down  (h) Hammer On  (p) Pull Off  (b) Bend (r) Release (v) Vibrato


E|------------------------------------------------------------------------------
B|-----0-----0-----0-----0-----4-----3-----0-----3---------3-----0-----3-----0--
G|--4-----4-----4-----4-----5-----5-----5-----5---------5-----5-----5-----5-----
D|------------------------------------------------------------------------------
A|------------------------------------------------------------------------------
E|------------------------------------------------------------------------------



E|------------------------------------
B|------------------------------------
G|------------------------------------
D|--5------5----5------7------7----7--
A|--5------5----5------7------7----7--
E|--3------3----3------5------5----5--
http://www.guitartabcreator.com
Guitar Tab Creator is intended to store guitar tab created through the tool. It currently does not support in-line text editing. Any text you place in here will be lost. If you need to comment on your tab, please use the "Tab Notes" section located below.