Bright Size Life solo

(/) Slide Up  (\) Slide Down  (h) Hammer On  (p) Pull Off  (b) Bend (r) Release (v) Vibrato

E|----------------------------------------------------------------------------------------
B|---3--------8-------10---------12---------13----15--------------------------------------
G|-4---4----9---9--11----11---13----13---14----16----17/19-19--17--15-14---17-15-14\13/14-
D|----------------------------------------------------------------------------------------
A|----------------------------------------------------------------------------------------
E|----------------------------------------------------------------------------------------



E|-----------14-15-14---------------------------------------
B|--------------------17--15------15--17-18---15--17-15-15v-
G|-15-14--14------------------14----------------------------
D|----------------------------------------------------------
A|----------------------------------------------------------
E|----------------------------------------------------------



E|----------------------------------------------------------------------------------
B|-17p14---15p12-15p12---12h14p12---------------------------------------------------
G|--------------------------------14---10/11------10/11--9-9\7---7-9/10\9-7-9--7v---
D|-------------------------------------------9-12--------------9--------------------
A|----------------------------------------------------------------------------------
E|----------------------------------------------------------------------------------



E|-------------------5---5---5-5---5/7-------10/12\10---------------------------
B|-----------------7----------------------------------12-10----10---------------
G|-------------4-7------------------------11----------------12-----11/12--9-----
D|---------4-7--------------------------------------------------------------12v-
A|-----5-7----------------------------------------------------------------------
E|-5-7--------------------------------------------------------------------------



E|--------------------------10-9------10-9-----10----10-9------8-7-----8----8-7-
B|----------------10--10\12--------12-------12----12--------10------10---10-----
G|--------7--9/11---------------------------------------------------------------
D|---7--9-----------------------------------------------------------------------
A|-9----------------------------------------------------------------------------
E|------------------------------------------------------------------------------



E|-
B|-
G|-
D|-
A|-
E|-
http://www.guitartabcreator.com
Guitar Tab Creator is intended to store guitar tab created through the tool. It currently does not support in-line text editing. Any text you place in here will be lost. If you need to comment on your tab, please use the "Tab Notes" section located below.