80's Thrash Riff (Similar to Testament)

(/) Slide Up  (\) Slide Down  (h) Hammer On  (p) Pull Off  (b) Bend (r) Release (v) Vibrato


E|---------------------------------------------------------------------------------------------------
B|--------------------------------------------------------------------------------------------------
G|--------------------------------------------------------------------------------------------------
D|--------------------------------------------------------------1-----------------------------------
A|-----------7--------6--------2--1-----------7--------6--------3---------------------7--------6----
E|--0--0--0--5--0--0--4--0--0--3--2--0--0--0--5--0--0--4--0--0---------------0--0--0--5--0--0--4-----



E|--------------------------------------------
B|--------------------------------------------
G|--------------------------------------------
D|-----------------------------------------3--
A|--------2--1-----------7--------6--------5--
E|--0--0--3--2--0--0--0--5--0--0--4--0--0-----



E|--------------------------------------------------------------------------------------------------
B|--------------------------------------------------------------------------------------------------
G|--------------------------------------------------------------------------------------------------
D|-----------------------------------------------------------------1--------------------------------
A|-----------7---------6---------2-1-----------7---------6---------3---------------7---------6------
E|-0-0-0-0-0-5-0-0-0-0-4-0-0-0-0-3-2-0-0-0-0-0-5-0-0-0-0-4-0-0-0-0-------0-0-0-0-0-5-0-0-0-0-4-0-0-0-



E|----------------------------------------
B|----------------------------------------
G|----------------------------------------
D|--------------------------------7--6--5-
A|---2-1-------------7---------6--5--4--3-
E|-0-3-2---0-0-0-0-0-5-0-0-0-0-4----------
http://www.guitartabcreator.com
Guitar Tab Creator is intended to store guitar tab created through the tool. It currently does not support in-line text editing. Any text you place in here will be lost. If you need to comment on your tab, please use the "Tab Notes" section located below.