1

(/) Slide Up  (\) Slide Down  (h) Hammer On  (p) Pull Off  (b) Bend (r) Release (v) Vibrato


E|-----------------2--3--
B|--------------3--1-----
G|--4--4--5--0-----2-----
D|--5--5-----2-----0-----
A|--7--3-----2-----------
E|-----------0-----------



E|--0--2--0--0-----
B|--0--3--3--0--5--
G|--4--4--0--6--7--
D|--5--4--2--7-----
A|--2--2--3--0-----
E|--3--------0-----
http://www.guitartabcreator.com
Guitar Tab Creator is intended to store guitar tab created through the tool. It currently does not support in-line text editing. Any text you place in here will be lost. If you need to comment on your tab, please use the "Tab Notes" section located below.