Song no2

(/) Slide Up  (\) Slide Down  (h) Hammer On  (p) Pull Off  (b) Bend (r) Release (v) Vibrato


E|-----------------------------------
B|----------9--------------9---------
G|------12-----12------12-----12p10--
D|--11-------------11----------------
A|-----------------------------------
E|-----------------------------------



E|----------------------------
B|--------7-----------7-------
G|-----9-----9-----9-----9p8--
D|--9-----------9-------------
A|----------------------------
E|----------------------------



E|----------------------------
B|--------5-----------5-------
G|-----7-----7-----7-----7p6--
D|--7-----------7-------------
A|----------------------------
E|----------------------------



E|----------------------------
B|--------3-----------3-------
G|-----5-----5-----5-----5p4--
D|--5-----------5-------------
A|----------------------------
E|----------------------------



E|-------------------
B|-----1-------1-----
G|---3---3---3---3p2-
D|-3-------3---------
A|-------------------
E|-------------------
http://www.guitartabcreator.com
Guitar Tab Creator is intended to store guitar tab created through the tool. It currently does not support in-line text editing. Any text you place in here will be lost. If you need to comment on your tab, please use the "Tab Notes" section located below.