solo

(/) Slide Up  (\) Slide Down  (h) Hammer On  (p) Pull Off  (b) Bend (r) Release (v) Vibrato


E|---------------------------10v--10p7------------12b14------------12v--12p10-------------------------
B|-------5b5-------10b10r10-------------10h12p10---------10h12p10--------------10---------------------
G|--4h7-------7\9------------------------------------------------------------------9p7-----9p7--------
D|--------------------------------------------------------------------------------------9-------9-----
A|----------------------------------------------------------------------------------------------------
E|----------------------------------------------------------------------------------------------------



E|---------------------------------------------------------------
B|---------------------------------------------------------------
G|--9p7-------4h7p4h7p4------------------------------------------
D|-------9p7-------------7--7\9-----7\9--9p7-----9p7-----9p7-----
A|-------------------------------9------------9-------9-------9--
E|---------------------------------------------------------------
http://www.guitartabcreator.com
Guitar Tab Creator is intended to store guitar tab created through the tool. It currently does not support in-line text editing. Any text you place in here will be lost. If you need to comment on your tab, please use the "Tab Notes" section located below.