We Can Work It Out

(/) Slide Up  (\) Slide Down  (h) Hammer On  (p) Pull Off  (b) Bend (r) Release (v) Vibrato

E|--------------------|--------------------|--------------------|--
B|--------------------|--------------------|--------------------|--
G|--------------------|--------------------|--------------------|--
D|--------------------|--------------------|--------------------|--
A|--3--3--3--------3--|--3--3--3--------3--|--1--1--1--------3--|--
E|-----------3--5-----|-----------3--5-----|-----------3--5-----|--



E|--------------------------------------------------|--
B|--------------------------------------------------|--
G|--------------------------------------------------|--
D|--------------------------------------------------|--
A|--------------3--3--3--3--------------------------|--
E|--1--1--1--1--------------1--1--1--1--3--3--3--3--|--



E|-----------------------------------------------------------------------------------------------------
B|-----------------------------------------------------------------------------------------------------
G|-----------------------------------------------------------------------------------------------------
D|-----------------------------------------------------------------------------------------------------
A|--0--0--0--0--0--0--0--0--0--0--0--0--0--0--0--0-----------------------------------------------------
E|--------------------------------------------------1--1--1--1--1--1--1--1--0--0--0--0--0--0--0--0-----



E|--------------------------------------------------
B|--------------------------------------------------
G|--------------------------------------------------
D|--------------------------------------------------
A|--0--0--0--0--------------------------------------
E|--------------3--3--3--3--1--1--1--1--0--0--0--0--



E|--------------------------------------------------------------------------------------------------
B|--------------------------------------------------------------------------------------------------
G|--------------------------------------------------------------------------------------------------
D|--------------------------------------------------------------------------------------------------
A|--0--0--0--0--0--0--0--0--0--0--0--0--0--0--0--0--------------------------------------------------
E|--------------------------------------------------1--1--1--1--1--1--1--1--0--0--0--0--0--0--0--0--



E|--------------------------------------------------|--
B|--------------------------------------------------|--
G|--------------------------------------------------|--
D|--------------------------3--2--0-----------------|--
A|--0--0--0--0-----------------------3--2--0-----3--|--
E|--------------3--3--3--3--------------------3-----|--



E|--------------------------|-------------------|--
B|--------------------------|-------------------|--
G|-----------------------5--|-------------------|--
D|--7--5--7--5--7--5--7-----|-------------------|--
A|--------------------------|--3v--1v-----------|--
E|--------------------------|----------4v--3h1--|--
http://www.guitartabcreator.com
Guitar Tab Creator is intended to store guitar tab created through the tool. It currently does not support in-line text editing. Any text you place in here will be lost. If you need to comment on your tab, please use the "Tab Notes" section located below.