Mary Jane's Last Dance

(/) Slide Up  (\) Slide Down  (h) Hammer On  (p) Pull Off  (b) Bend (r) Release (v) Vibrato


E|--------------------------------9---9------------12--12-----
B|--------10--10--10--10----7/10--10--10--10/14----14--14-----
G|--------9---9---9---9-----6-9---9---9--------------------0--
D|--9/11------11--11--9---------------------------------------
A|------------------------------------------------------------
E|------------------------------------------------------------



E|------------------------
B|---------14--14--14\12--
G|------------------------
D|--11/14----------14-12--
A|------------------------
E|------------------------
http://www.guitartabcreator.com
Guitar Tab Creator is intended to store guitar tab created through the tool. It currently does not support in-line text editing. Any text you place in here will be lost. If you need to comment on your tab, please use the "Tab Notes" section located below.