Solo for A dark Winters Night

(/) Slide Up  (\) Slide Down  (h) Hammer On  (p) Pull Off  (b) Bend (r) Release (v) Vibrato

E|--------------12--14--12----------------------12--14--12----------------------10--12--10----------
B|----------15--------------15--------------14--------------14--------------12--------------12------
G|------14----------------------14------12----------------------12------11----------------------11--
D|--16------------------------------14------------------------------12------------------------------
A|--------------------------------------------------------------------------------------------------
E|--------------------------------------------------------------------------------------------------



E|-------------9--12--9---------------------------------------------
B|---------11------------11-----------------12----------12/15--17v--
G|------9--------------------9----------11----------11--------------
D|--11------------------------------12----------12------------------
A|------------------------------14----------------------------------
E|------------------------------------------------------------------



E|---------------------------------------------------------------
B|--15--12--11---------------------------------------------------
G|--------------15--12--11---------------------------------------
D|--------------------------14--12--11-----------------------9v--
A|-------------------------------------------------7--9--10------
E|--------------------------------------9--11--12----------------
http://www.guitartabcreator.com
Guitar Tab Creator is intended to store guitar tab created through the tool. It currently does not support in-line text editing. Any text you place in here will be lost. If you need to comment on your tab, please use the "Tab Notes" section located below.