Solo break of S Throne

(/) Slide Up  (\) Slide Down  (h) Hammer On  (p) Pull Off  (b) Bend (r) Release (v) Vibrato


E|--------------------------------------------------
B|--------------------------------------------------
G|--------------------------------------------------
D|--------------------------------------------4--5--
A|--3--7--6--3--6--7--3--7--3--7--6--3--6--7--------
E|--------------------------------------------------



E|--------------------------------------------------
B|--------------------------------------------------
G|--------------------------------------------4--5--
D|--------------------------------------4--5--------
A|--0--7--6--0--6--7--0--7--0--7--6--7--------------
E|--------------------------------------------------



E|--------------------------------------------------
B|--------------------------------------------------
G|--9--7--5-----------------5-----------------------
D|-----------9--7--5--7--9-----9--7--5--------------
A|--------------------------------------9--7--5-----
E|-----------------------------------------------8--



E|------------------------------------------------------------------------------------
B|-----------------------------------------------------------7--8--10--8--10--10--12--
G|--------------------------------5--7--9--7--5-----5--7--9---------------------------
D|-----------5--7--5-----5--7--9-----------------9------------------------------------
A|--5--7--9-----------9---------------------------------------------------------------
E|------------------------------------------------------------------------------------



E|-10--------------------8-10-12-10-8-----------------------------------
B|----10-12-10-8-8-10-12--------------12-10-8---------------------------
G|--------------------------------------------11-9-7--------------------
D|---------------------------------------------------10-9-7-------------
A|----------------------------------------------------------10-9-7------
E|-----------------------------------------------------------------10-8-
http://www.guitartabcreator.com
Guitar Tab Creator is intended to store guitar tab created through the tool. It currently does not support in-line text editing. Any text you place in here will be lost. If you need to comment on your tab, please use the "Tab Notes" section located below.