soletto verse and chorus

(/) Slide Up  (\) Slide Down  (h) Hammer On  (p) Pull Off  (b) Bend (r) Release (v) Vibrato

(W|WW) Whole (H|HH) Half (Q|QQ) Quarter (E|EE) 8th (S|SS) 16th (T|TT) 32nd (X|XX) 64th

t: none none none none
E|--------------
B|--------------
G|--------5--7--
D|--5--2--5--7--
A|--5--2--3--5--
E|--3--0--------


t: none none none none
E|--------------
B|--------------
G|--9-----5-----
D|--9--5--5--2--
A|--7--5--3--2--
E|-----3-----0--
http://www.guitartabcreator.com
Guitar Tab Creator is intended to store guitar tab created through the tool. It currently does not support in-line text editing. Any text you place in here will be lost. If you need to comment on your tab, please use the "Tab Notes" section located below.