Legato stacato run S Throne

(/) Slide Up  (\) Slide Down  (h) Hammer On  (p) Pull Off  (b) Bend (r) Release (v) Vibrato


E|-----------------------------------------------5--7--8--
B|--------------------------------------5--7--8-----------
G|-----------4--5--7-----------4--5--7--------------------
D|--4--5--7-----------4--5--7-----------------------------
A|--------------------------------------------------------
E|--------------------------------------------------------



E|-----------------------------------------------5--7--8------------7--8--10--
B|--------------------------------------5--7--8-----------7--8--10------------
G|-----------4--5--7-----------4--5--7----------------------------------------
D|--4--5--7-----------4--5--7-------------------------------------------------
A|----------------------------------------------------------------------------
E|----------------------------------------------------------------------------
http://www.guitartabcreator.com
Guitar Tab Creator is intended to store guitar tab created through the tool. It currently does not support in-line text editing. Any text you place in here will be lost. If you need to comment on your tab, please use the "Tab Notes" section located below.