A Dark Winters Night intro

(/) Slide Up  (\) Slide Down  (h) Hammer On  (p) Pull Off  (b) Bend (r) Release (v) Vibrato


E|---------10--------7--------9----------6--
B|------0---------0--------0--------0/5-----
G|--11---------9--------7--------6----------
D|------------------------------------------
A|------------------------------------------
E|------------------------------------------



E|---------10-------------17/19--15----------19--18--------------
B|------0-------------15-------------17--------------17--17h19v--
G|--11---------12/14---------------------16----------------------
D|---------------------------------------------------------------
A|---------------------------------------------------------------
E|---------------------------------------------------------------
http://www.guitartabcreator.com
Guitar Tab Creator is intended to store guitar tab created through the tool. It currently does not support in-line text editing. Any text you place in here will be lost. If you need to comment on your tab, please use the "Tab Notes" section located below.