Lala liedje goed

(/) Slide Up  (\) Slide Down  (h) Hammer On  (p) Pull Off  (b) Bend (r) Release (v) Vibrato
E|--------0---------------0-----------------0---------------0-----------0-----------0-----
B|--------0---------------0-----------------0---------------0-----------0-----------0-----
G|-----6-----6---------6-----6-----------4-----4---------4-----4-----4-----4-----4-----4--
D|----------------------------------------------------------------------------------------
A|----------------------------------------------------------------------------------------
E|--5---------------5-----------------4---------------4-----------3-----------3-----------



E|--------0-----------0-----------------0-----------0-----------------0-----------0-----
B|--------0-----------0-----------------0-----------0-----------------0-----------0-----
G|-----2-----2-----2-----2-----------2-----2-----2-----2-----------2-----2-----2-----2--
D|--------------------------------------------------------------------------------------
A|--------------------------------------------------------------0-----------0-----------
E|--2-----------2-----------------1-----------1-----------------------------------------



E|--------0-----------0---------------------0---------------0-----
B|--------0-----------0---------------------0---------------0-----
G|-----2-----2-----1-----1---------------2-----2---------2-----2--
D|----------------------------------------------------------------
A|--2---------------------------------0---------------0-----------
E|--------------0-------------------------------------------------



E|--------2-----------2-----------0-----------0-----------4-----------2-----------0--------
B|--------2-----------2-----------0-----------0-----------0-----------0-----------0--------
G|-----2-----2-----2-----2-----2-----2-----2-----2-----4-----4-----2-----2-----2-----2-----
D|--0-----------0-----------------------------------------------0--------------------------
A|--------------------------0-----------0-----------4-----------------------0--------------
E|-----------------------------------------------------------------------------------------



E|--------0-----------2-----------2-----------------------
B|--------0-----------2-----------2-----------------------
G|-----2-----2-----2-----2-----2-----2--------0-----------
D|--------------0-----------0-----------------------------
A|--0-----------------------------------------------------
E|--------------------------------------------------------



E|--------0-----------0-----------0-----------0-----------0-----------0-----
B|--------0-----------0-----------0-----------0-----------0-----------0-----
G|-----2-----2-----2-----2-----2-----2-----2-----2-----1-----1-----1-----1--
D|--------------------------------------------------------------------------
A|--0-----------0-----------2-----------2-----------------------------------
E|--------------------------------------------------0-----------0-----------
http://www.guitartabcreator.com
Guitar Tab Creator is intended to store guitar tab created through the tool. It currently does not support in-line text editing. Any text you place in here will be lost. If you need to comment on your tab, please use the "Tab Notes" section located below.