lala

(/) Slide Up  (\) Slide Down  (h) Hammer On  (p) Pull Off  (b) Bend (r) Release (v) Vibrato

E|--------0--------
B|--------0--------
G|-----6-----6-----
D|-----------------
A|-----------------
E|--5--------------



E|--------0-----
B|--------0-----
G|-----6-----6--
D|--------------
A|--------------
E|--5-----------



E|--------0-----
B|--------0-----
G|-----4-----4--
D|--------------
A|--------------
E|--4-----------



E|--------0-----
B|--------0-----
G|-----4-----4--
D|--------------
A|--------------
E|--4-----------



E|--------0-----
B|--------0-----
G|-----4-----4--
D|--------------
A|--------------
E|--3-----------



E|--------0-----
B|--------0-----
G|-----4-----4--
D|--------------
A|--------------
E|--3-----------



E|--------0-----
B|--------0-----
G|-----2-----2--
D|--------------
A|--------------
E|--2-----------



E|--------0-----
B|--------0-----
G|-----2-----2--
D|--------------
A|--------------
E|--2-----------



E|--------0-----
B|--------0-----
G|-----2-----2--
D|--------------
A|--------------
E|--1-----------



E|--------0-----
B|--------0-----
G|-----2-----2--
D|--------------
A|--------------
E|--1-----------



E|--------0-----
B|--------0-----
G|-----2-----2--
D|--------------
A|--0-----------
E|--------------



E|--------0-----
B|--------0-----
G|-----2-----2--
D|--------------
A|--0-----------
E|--------------



E|--------0-----
B|--------0-----
G|-----2-----2--
D|--------------
A|--2-----------
E|--------------



E|--------0-----
B|--------0-----
G|-----1-----1--
D|--------------
A|--------------
E|--0-----------



E|--------0-----
B|--------0-----
G|-----2-----2--
D|--------------
A|--0-----------
E|--------------



E|--------0-----
B|--------0-----
G|-----2-----2--
D|--------------
A|--0-----------
E|--------------
http://www.guitartabcreator.com
Guitar Tab Creator is intended to store guitar tab created through the tool. It currently does not support in-line text editing. Any text you place in here will be lost. If you need to comment on your tab, please use the "Tab Notes" section located below.