story of us-taylor swift

(/) Slide Up  (\) Slide Down  (h) Hammer On  (p) Pull Off  (b) Bend (r) Release (v) Vibrato


E|-----------7-----------7--------------------------------
B|--4--5--4-----4--5--4-----4--5--4--5-----4--5-----4--5--
G|--------------------------------------6--------6--------
D|--------------------------------------------------------
A|--------------------------------------------------------
E|--------------------------------------------------------



E|-----------7-------------7----9----7----14----12----12----11----11------------------------
B|--4/5\4---------4/5\4-------------------------------------------------14----14----12/14\12
G|------------------------------------------------------------------------------------------
D|------------------------------------------------------------------------------------------
A|------------------------------------------------------------------------------------------
E|------------------------------------------------------------------------------------------
http://www.guitartabcreator.com
Guitar Tab Creator is intended to store guitar tab created through the tool. It currently does not support in-line text editing. Any text you place in here will be lost. If you need to comment on your tab, please use the "Tab Notes" section located below.