21 guns- green day

(/) Slide Up  (\) Slide Down  (h) Hammer On  (p) Pull Off  (b) Bend (r) Release (v) Vibrato


E|--------------------------------------------------------------------------------------
B|---------10------8--10----------------------------------------------------------------
G|-------------10---------10------10------9--10--7-----7---------------9--9--9--10--12--
D|-----10---------------------12------12------------8-----8--10--7----------------------
A|--8---------------------------------------------------------------8-------------------
E|--------------------------------------------------------------------------------------



E|--------------------------------------------------------------------------------------
B|---------10------8--10------------------------------------------------------------11--
G|-------------10---------10------10------9--10--7-----7---------------9--9--9--10------
D|-----10---------------------12------12------------8-----8--10--7----------------------
A|--8---------------------------------------------------------------8-------------------
E|--------------------------------------------------------------------------------------



E|---------------------------------------
B|---------------------------------------
G|-----7------------------9--9--9--9--9--
D|--8-----8-----10--7--------------------
A|-----------8---------8-----------------
E|---------------------------------------
http://www.guitartabcreator.com
Guitar Tab Creator is intended to store guitar tab created through the tool. It currently does not support in-line text editing. Any text you place in here will be lost. If you need to comment on your tab, please use the "Tab Notes" section located below.