hotel california

(/) Slide Up  (\) Slide Down  (h) Hammer On  (p) Pull Off  (b) Bend (r) Release (v) Vibrato

E|---------------------------------------------------------------
B|--------10h12--12b15--10--12-----------------------------------
G|--9\11------------------------9------9--11---------------------
D|---------------------------------12---------12--8--9--12h9-----
A|------------------------------------------------------------12b
E|---------------------------------------------------------------



E|----------------------------------------------------------12---------------
B|---------------------------------------------------10b12------10--7--9b10--
G|--7--9\11---------------7--9\11--------------------------------------------
D|-----------12b9------9-----------12--9------9------------------------------
A|-----------------12---------------------12-----12--------------------------
E|---------------------------------------------------------------------------



E|---------10b12--10b7---------12------------------10---------------------
B|--10--7---------------10b12------10--8----------------------------------
G|----------------------------------------7--9b11------11--9--7--7--6--7--
D|------------------------------------------------------------------------
A|------------------------------------------------------------------------
E|------------------------------------------------------------------------



E|----------------------------------------------------------------------7------------------
B|--------7h8--7h8--7--5-----5--7b8--7b8--7b8--------------7--10---------------------------
G|--7--9------------------7--------------------9--7--9b11---------9b11-----9b11--7--9b11v--
D|-----------------------------------------------------------------------------------------
A|-----------------------------------------------------------------------------------------
E|-----------------------------------------------------------------------------------------
http://www.guitartabcreator.com
Guitar Tab Creator is intended to store guitar tab created through the tool. It currently does not support in-line text editing. Any text you place in here will be lost. If you need to comment on your tab, please use the "Tab Notes" section located below.