Rip Off

(/) Slide Up  (\) Slide Down  (h) Hammer On  (p) Pull Off  (b) Bend (r) Release (v) Vibrato
E|------------------------------------------------------------------------------
B|------------------------------------------------------------------------------
G|----------------------------------------------------------------------5-------
D|-3h5-3h5-3-5p3---3-------------------------3h5-3h5-3-5p3---3------5/7---7\5---
A|---------------5---5--1h3-1h3-1-3p1---1------------------5---5--5-----------5-
E|------------------------------------3---3-------------------------------------



E|-----------------------------------------------------------------------------------
B|-----------------------------------------------------------------------------------
G|---------------------------------------------------------------7-----------3-5-3---
D|-3h5-3h5-3-5p3---3-----------------------3h5-3h5-3-5p3---3-------------3h5-------5-
A|---------------5---5-1h3-1h3-1-3p1---1-----------------5---5-5---5-4-3-------------
E|-----------------------------------3---3-------------------------------------------



E|-----------------
B|-----------------
G|-----------------
D|---------3-------
A|---1-3/5---5\3-1-
E|-3---------------



E|-----------------
B|-----------------
G|---------3-------
D|---2-3/5---5\3-2-
A|-3---------------
E|-----------------



E|-----------------------------------------------------------------
B|-----------------------------------------------------------------
G|-------5-7-5------------5-7-5------------5-7-7-7---7---7---7---7-
D|---5h7-------7-5----5h7-------7-5----5h7-------------------------
A|-5----------------5----------------5-------------5---5---5---5---
E|-----------------------------------------------------------------
http://www.guitartabcreator.com
Guitar Tab Creator is intended to store guitar tab created through the tool. It currently does not support in-line text editing. Any text you place in here will be lost. If you need to comment on your tab, please use the "Tab Notes" section located below.