Dad Dad

(/) Slide Up  (\) Slide Down  (h) Hammer On  (p) Pull Off  (b) Bend (r) Release (v) Vibrato
E|--------------------------------
B|--------------------------------
G|------------7--9/11-9-7---------
D|--------7-9-------------9-7-----
A|-5--7/9---------------------9-7-
E|--------------------------------



E|--------------------------------
B|--------------------------------
G|--------------------------------
D|------------7--9/11-9-7---------
A|--------7-9-------------9-7-----
E|-5--7/9---------------------9-7-



E|---------------------------------------------------------------------------
B|---------------------------------------------------------------------------
G|------------------------------7-9-7---------------------------------9-11-9-
D|------------5-7-5---------7-9-------------------7-9-7----------9-11--------
A|--------5-7--------5--7/9-------------------7-9--------7--9/11-------------
E|-3--5/7------------------------------5--7/9--------------------------------



E|-----------------------------------------------------------------
B|-----------------------------------------------------------------
G|-----------------------------------------------------------------
D|-----------------------------------------------------------------
A|-----------------------------------------------------------------
E|-5-5-5-5-5-5-5-5-5-5-5-5-5-5-5-5-5-5-5-5-5-5-5-5-5-5-5-5-5-5-5-5-
http://www.guitartabcreator.com
Guitar Tab Creator is intended to store guitar tab created through the tool. It currently does not support in-line text editing. Any text you place in here will be lost. If you need to comment on your tab, please use the "Tab Notes" section located below.