Ceremony

(/) Slide Up  (\) Slide Down  (h) Hammer On  (p) Pull Off  (b) Bend (r) Release (v) Vibrato


E|--------------------------------------------------------------
B|--------------------------------------------------------------
G|--------------------------------------------------------------
D|--------3-----------------------------3-----------------3--3--
A|--5--5-----5--3--3--5--3--5--5--5--5-----5--3--3--5--3--------
E|--------------------------------------------------------------



E|--------------------------------------------------------------------------------
B|--------------------------------------------------------------------------------
G|--------------------------------------------------------------------------------
D|--------3-----------------------------3-----------------3--2--------3--2--------
A|--5--5-----5--3--3--5--3--5--5--5--5-----5--3--3--5--3--------5--3--------5--3--
E|--------------------------------------------------------------------------------



E|--------------------------------------------------------------
B|--------------------------------------------------------------
G|--------------------------------------------------------------
D|--------3-----------------------------3-----------------3--3--
A|--5--5-----5--3--3--5--3--5--5--5--5-----5--3--3--5--3--------
E|--------------------------------------------------------------



E|--------------------------------------------------------------------------------
B|--------------------------------------------------------------------------------
G|--------------------------------------------------------------------------------
D|--------3-----------------------------3-----------------3--2--------3--2--------
A|--5--5-----5--3--3--5--3--5--5--5--5-----5--3--3--5--3--------5--3--------5--3--
E|--------------------------------------------------------------------------------



E|---------------------------------
B|---------------------------------
G|---------------------------------
D|---------------------------------
A|--5b5--------------------------5p
E|---------------------------------



E|--------------------------------------------------------------
B|--------------------------------------------------------------
G|--------------------------------------------------------------
D|--------------------------------------------------------3--3--
A|--5----------------------5--5--5------------------------------
E|--------------------------------------------------------------



E|--------------------------------------------------------------------------------
B|--------------------------------------------------------------------------------
G|--------------------------------------------------------------------------------
D|--------------------------------------------------------3--2--------3--2--------
A|--5----------------------5--5--5------------------------------5--3--------5--3--
E|--------------------------------------------------------------------------------



E|-----------------------------------------------------------------
B|-----------------------------------------------------------------
G|-----------------------------------------------------------------
D|--------3-----------------------------3-----------------3--3-----
A|--5--5-----5--3--3--5--3--5--5--5--5-----5--3--3--5--3-----------
E|-----------------------------------------------------------------



E|--------------------------------------------------------------------------------
B|--------------------------------------------------------------------------------
G|--------------------------------------------------------------------------------
D|--------3-----------------------------3-----------------3--2--------3--2--------
A|--5--5-----5--3--3--5--3--5--5--5--5-----5--3--3--5--3--------5--3--------5--3--
E|--------------------------------------------------------------------------------



E|-----------------------
B|-----------------------
G|-----------------------
D|--0--2--3--0--2--3--0--
A|-----------------------
E|-----------------------



E|-----------------------------------------------------------------------------------
B|-----------------------------------------------------------------------------------
G|-----------------------------------------------------------------------------------
D|--0--------------------------------------------------------------------------------
A|-----5--5--5--5--6--5----5--5--5--5--3--2----5--5--5--5--6--5----5--5--5--5--3--2--
E|-----------------------------------------------------------------------------------



E|--------------------------------------------------------------------------------
B|--------------------------------------------------------------------------------
G|--------------------------------------------------------------------------------
D|--------------------------------------------------------------------------------
A|--5--5--5--5--6--5----5--5--5--5--3--2----5--5--5--5--6--5----5--5--5--5--3--2--
E|--------------------------------------------------------------------------------



E|--
B|--
G|--
D|--
A|--
E|--
http://www.guitartabcreator.com
Guitar Tab Creator is intended to store guitar tab created through the tool. It currently does not support in-line text editing. Any text you place in here will be lost. If you need to comment on your tab, please use the "Tab Notes" section located below.