one

(/) Slide Up  (\) Slide Down  (h) Hammer On  (p) Pull Off  (b) Bend (r) Release (v) Vibrato


E|--5--------------------------
B|-----5-----------------------
G|--------5--------------7-----
D|-----------5--------6--------
A|--------------5-----------7--
E|-----------------5-----------



E|--------------------------
B|--5-----------------------
G|-----5-----------------7--
D|--------5-----------7-----
A|-----------5-----7--------
E|--------------5-----------



E|--------------------------
B|--6-----------------------
G|-----6-----------------7--
D|--------6-----------------
A|-----------6--------7-----
E|--------------6--7--------



E|--------------------------
B|--5-----------------------
G|-----5-----------------7--
D|--------5-----------------
A|-----------5--------7-----
E|--------------5--8--------
http://www.guitartabcreator.com
Guitar Tab Creator is intended to store guitar tab created through the tool. It currently does not support in-line text editing. Any text you place in here will be lost. If you need to comment on your tab, please use the "Tab Notes" section located below.