new stuff

(/) Slide Up  (\) Slide Down  (h) Hammer On  (p) Pull Off  (b) Bend (r) Release (v) Vibrato
E|-----1--3--4--------------------------------1--
B|-----------------3--6--8--9--------------------
G|--------------5-----------------------2--4-----
D|--0--------------------------2-----------------
A|--------------------------------2--------------
E|-----------------------------------3-----------



E|--15--------------------------------------------------------------18\17------------------18--20-----
B|----------16--15------------------------------------------19--17------------------------------------
G|------15----------------------------------------------18--------------------------------------------
D|------------------16------17--16------------------19------------------------------------------------
A|----------------------15----------16--15-------------------------------------18------16-------------
E|------------------------------------------15--17-------------------------21------17-----------------



E|--------------------------------------------------
B|--------------15--16------18--17------------------
G|----------------------16----------18r19--17v--17--
D|---------0\8--------------------------------------
A|--15--6-------------------------------------------
E|--------------------------------------------------



E|-----------------------------------------------------------3--4--5--6--7--8--
B|-----------------------------------------2--3--4--5--6--7--------------------
G|-----------------------1--2--3--4--5--6--------------------------------------
D|--0--1--2--3--4--4--5--------------------------------------------------------
A|-----------------------------------------------------------------------------
E|-----------------------------------------------------------------------------
http://www.guitartabcreator.com
Guitar Tab Creator is intended to store guitar tab created through the tool. It currently does not support in-line text editing. Any text you place in here will be lost. If you need to comment on your tab, please use the "Tab Notes" section located below.