The Middle

(/) Slide Up  (\) Slide Down  (h) Hammer On  (p) Pull Off  (b) Bend (r) Release (v) Vibrato


E|--------------------------------------------------------------------------------------------
B|--------------------------------------------------------------------------------------------
G|--------------------------------------------2--2--2--2--2-----------------------------------
D|--4-----7--7--7--7--7--4--4--4--4--4--2-----2--2--2--2--2-----------------------------------
A|-----5--5--5--5--5--5--------------------4--4--4--4--4--4--5-----5--5--5--5--4--4--4--4-----
E|--------------------------------------------------------------3--3--3--3--3--5--5--5--5-----



E|--------------------------------------
B|--------------------------------------
G|--------------------------------------
D|--------------7--7--7--7--7--7--7--7--
A|--4--4--4--4--5--5--5--5--5--5--5--5--
E|--5--5--5--5--------------------------



E|-----------------------------------------------------------------------------------
B|-----------------------------------------------------------------------------------
G|-----------------------------------------------2--2--2--2--2--2--2--2--2--2--2--2--
D|--7--7--7--7--7--7--7--7--7--7--7--7--7--7--7--2--2--2--2--2--2--2--2--2--2--2--2--
A|--5--5--5--5--5--5--5--5--5--5--5--5--5--5--5--4--4--4--4--4--4--4--4--4--4--4--4--
E|-----------------------------------------------------------------------------------



E|--------------------------------------------------------------------------------
B|--------------------------------------------------------------------------------
G|--2--2--2--2--------------------------------------------------------------------
D|--2--2--2--2--------------------------------------------7--7--7--7--7--7--7--7--
A|--4--4--4--4--5--5--5--5--5--5--4--4--4--4--4--4--4--4--5--5--5--5--5--5--5--5--
E|--------------3--3--3--3--3--3--5--5--5--5--5--5--5--5--------------------------



E|--------------------------
B|--------------------------
G|--------------------------
D|--7--7--7--7--7--7--7--7--
A|--5--5--5--5--5--5--5--5--
E|--------------------------



E|--------------------------------------------------------------------------
B|--7--7--7--7--7--7--7--7--------------------------------------------------
G|--7--7--7--7--7--7--7--7--6--6--6--6--6--6--6--6--4--4--4--4--4--4--4--4--
D|--7--7--7--7--7--7--7--7--7--7--7--7--7--7--7--7--5--5--5--5--5--5--5--5--
A|--5--5--5--5--5--5--5--5--7--7--7--7--7--7--7--7--5--5--5--5--5--5--5--5--
E|--------------------------5--5--5--5--5--5--5--5--3--3--3--3--3--3--3--3--



E|--------------------------
B|--7--7--7--7--7--7--7--7--
G|--7--7--7--7--7--7--7--7--
D|--7--7--7--7--7--7--7--7--
A|--5--5--5--5--5--5--5--5--
E|--------------------------



E|--------------------------------------------------
B|--------------------------7--7--7--7--7--7--7--7--
G|--6--6--6--6--6--6--6--6--7--7--7--7--7--7--7--7--
D|--7--7--7--7--7--7--7--7--7--7--7--7--7--7--7--7--
A|--7--7--7--7--7--7--7--7--5--5--5--5--5--5--5--5--
E|--5--5--5--5--5--5--5--5--------------------------



E|--------------------------------------------------
B|--------------------------7--7--7--7--7--7--7--7--
G|--4--4--4--4--4--4--4--4--7--7--7--7--7--7--7--7--
D|--5--5--5--5--5--5--5--5--7--7--7--7--7--7--7--7--
A|--5--5--5--5--5--5--5--5--5--5--5--5--5--5--5--5--
E|--3--3--3--3--3--3--3--3--------------------------



E|--------------------------------------
B|--------------------------------------
G|--4--4--4--4--4--4--4--4--6--6--6--6--
D|--5--5--5--5--5--5--5--5--7--7--7--7--
A|--5--5--5--5--5--5--5--5--7--7--7--7--
E|--3--3--3--3--3--3--3--3--5--5--5--5--



E|-----------
B|--2h3p2p0--
G|-----------
D|-----------
A|-----------
E|-----------
http://www.guitartabcreator.com
Guitar Tab Creator is intended to store guitar tab created through the tool. It currently does not support in-line text editing. Any text you place in here will be lost. If you need to comment on your tab, please use the "Tab Notes" section located below.