jazzy

(/) Slide Up  (\) Slide Down  (h) Hammer On  (p) Pull Off  (b) Bend (r) Release (v) Vibrato

E|-----------------------------------------
B|--5-----5--3-----8-----6--8--8--3--6--5--
G|--5-----4--2-----9-----7--7--7--5--6--6--
D|--3-----3--2-----7-----7--6--6--5--5--5--
A|--5--------3-----8--------7--------------
E|-----5--3-----3-----8--7-----6--5--5--5--



E|--8------0------------------0--
B|--10-----10-----3--8--8--1--0--
G|--9------9------5--7--9--2--0--
D|--10-----10-----5--5--9--3--2--
A|--8----------------7--------3--
E|------8--10--3--5-----8--3-----
http://www.guitartabcreator.com
Guitar Tab Creator is intended to store guitar tab created through the tool. It currently does not support in-line text editing. Any text you place in here will be lost. If you need to comment on your tab, please use the "Tab Notes" section located below.