Ambient progression

(/) Slide Up  (\) Slide Down  (h) Hammer On  (p) Pull Off  (b) Bend (r) Release (v) Vibrato


E|--0--0--0--0--
B|--0--0--0--0--
G|--8--6--8--4--
D|--9--6--9--4--
A|--7--0--0--0--
E|--------9--4--



E|--0--0--0--0--0--
B|--0--0--0--0--0--
G|--9--9--8--9--8--
D|--9--7--9--7--7--
A|--7--9--0--------
E|--------9--7--7--
http://www.guitartabcreator.com
Guitar Tab Creator is intended to store guitar tab created through the tool. It currently does not support in-line text editing. Any text you place in here will be lost. If you need to comment on your tab, please use the "Tab Notes" section located below.