6/4/13

(/) Slide Up  (\) Slide Down  (h) Hammer On  (p) Pull Off  (b) Bend (r) Release (v) Vibrato


E|--------------------------------------------------------------------------------------
B|--------------------------------------------------------------------------------------
G|--------------------------------------------------------------------------------------
D|-----2-----2-----2-----2-----0-----0-----0-----0-----2-----2-----2-----2-----0-----0--
A|--2-----2-----2-----2-----2-----2-----2-----2-----2-----2-----2-----2-----2-----2-----
E|--------------------------------------------------------------------------------------



E|--------------------------------------------------------------
B|--------------------------------------------------------------
G|--------------------------------------------------------------
D|-----0-----0h2--2/4--4\2--2--0-----0h2--2/4--4/7--4--2--0-----
A|--2-----2-----------------------2--------------------------2--
E|--------------------------------------------------------------



E|--------------------------------------------------------------------------------------------------
B|--------------------------------------------------------------------------------------------------
G|--------------------------------------------------------------------------------------------------
D|------12------12------12------12------11------11------11------11------10------10------10------10--
A|--11------11------11------11------11------11------11------11------11------11------11------11------
E|--------------------------------------------------------------------------------------------------



E|--------------------
B|--------------------
G|--------------------
D|------9------9------
A|--11-----11-----11--
E|--------------------
http://www.guitartabcreator.com
Guitar Tab Creator is intended to store guitar tab created through the tool. It currently does not support in-line text editing. Any text you place in here will be lost. If you need to comment on your tab, please use the "Tab Notes" section located below.