Foos 1

(/) Slide Up  (\) Slide Down  (h) Hammer On  (p) Pull Off  (b) Bend (r) Release (v) Vibrato


E|--------------------------------------------------------------
B|--------8-----------------------------8-----------------------
G|--------6-----------------------------6-----------------------
D|--------7--------------5--------------7--------------5--------
A|--0--0-----4--5--6--7-----3--3--0--0-----4--5--6--7-----3--3--
E|--------------------------------------------------------------



E|-----------------------------------------------------------
B|--------8-----------------------------8--------------------
G|--------6-----------------------------6--------------------
D|--------7--------------5--------------7--------------5--5--
A|--0--0-----4--5--6--7-----3--3--0--0-----4--5--6--7-----3--
E|-----------------------------------------------------------
http://www.guitartabcreator.com
Guitar Tab Creator is intended to store guitar tab created through the tool. It currently does not support in-line text editing. Any text you place in here will be lost. If you need to comment on your tab, please use the "Tab Notes" section located below.