Every breath you take, finger picking.

(/) Slide Up  (\) Slide Down  (h) Hammer On  (p) Pull Off  (b) Bend (r) Release (v) Vibrato


E|--------------------------|--------------------------|--------------------------|-----
B|--------------0-----------|--------------0-----------|--------------------------|-----
G|--------2--------2-----2--|--------2--------2-----2--|--------------0-----------|-----
D|-----0-----0--------0-----|-----0-----0--------0-----|--------4--------4-----4--|-----
A|--------------------------|--------------------------|-----2-----2--------2-----|-----
E|--3-----------------------|--3-----------------------|--0-----------------------|-----



E|--------------------------|--------------------------|--------0-----------------|--
B|--------------------------|--------3-----1-----------|--------------3-----------|--
G|--------------0-----------|-----0-----0-----0-----0--|-----2-----2-----2-----2--|--
D|--------4--------4-----4--|--------------------------|--0-----------------0-----|--
A|-----2-----2--------2-----|--3-----------------3-----|--------------------------|--
E|--0-----------------------|--------------------------|--------------------------|--



E|--------------------------|------------------------|--------------------------|--
B|--------------0-----------|--------0h1--0-------0--|--------------0-----------|--
G|--------2--------2-----2--|----------------2p0-----|--------2--------2-----2--|--
D|-----0-----0--------0-----|-----0------------------|-----0-----0--------0-----|--
A|--------------------------|------------------------|--------------------------|--
E|--3-----------------------|--3---------------------|--3-----------------------|--



E|------------------------|--------------------------|------------------------|--
B|--------0h1--0----------|--------------------------|-----------0----1-------|--
G|----------------2p0--0--|--------------0-----------|-----0--0----------0----|--
D|-----0------------------|--------4--------4-----4--|------------------------|--
A|------------------------|-----2-----2--------2-----|------------------------|--
E|--3---------------------|--0-----------------------|--0---------------------|--



E|------------------------|------------------------|--------------------------|--
B|-------------0h1--0-----|------------------------|--------------------------|--
G|-------0--0----------2--|-----2--2p0--2/4--0--0--|--------------0-----------|--
D|------------------------|--0---------------------|--------4--------4-----4--|--
A|------------------------|------------------------|-----2-----2--------2-----|--
E|--3---------------------|------------------------|--0-----------------------|--



E|--------------------------|-------------------------|-----0--------------------|--
B|--------------0-----------|--------------0-----3\1--|--------------1-----------|--
G|--------2--------2-----2--|--------0----------------|--------0--------0-----0--|--
D|-----0-----0--------0-----|-----0-----0-----0-------|-----------2--------2-----|--
A|--------------------------|-------------------------|--3-----------------------|--
E|--3-----------------------|--3----------------------|--------------------------|--



E|-----0--0--0------------|--------------------------|--------3p0----3--3p0--|--
B|--------------3p0-------|-----0--------0-----------|-----------------------|--
G|-------------------3p0--|--------2--------2-----2--|-----------------------|--
D|------------------------|-----------0--------0-----|-----0-----------------|--
A|--1---------------------|--------------------------|-----------------------|--
E|------------------------|--3-----------------------|--3--------------------|--



E|--3p0--------------------|--------3/5--5------------|--------0-----------------|--
B|-------------0-----------|----------------5b--3--3--|--------------3-----------|--
G|-------2--------2-----2--|-----0--------------------|-----2-----2-----2-----2--|--
D|----------2--------2-----|--------------------------|--0-----------------0-----|--
A|-------------------------|--0-----------------------|--------------------------|--
E|--0----------------------|--------------------------|--------------------------|--



E|------------------------|--------------------------|------------------------|--
B|--------0h1--0-------0--|--------------0-----------|--------0h1--0----------|--
G|-----2----------2p0-----|--------2--------2-----2--|----------------2p0--0--|--
D|--0---------------------|-----0-----0--------0-----|-----0------------------|--
A|------------------------|--------------------------|------------------------|--
E|------------------------|--3-----------------------|--3---------------------|--



E|--------------------------|------------------------|--------------------------|--
B|--------------------------|-----------0----0h1-----|-----------0----h1--0-----|--
G|--------------0-----------|-----0--0------------0--|-----0--0--------------2--|--
D|--------4--------4-----4--|------------------------|--------------------------|--
A|-----2-----2--------2-----|------------------------|--3-----------------------|--
E|--0-----------------------|--0---------------------|--------------------------|--



E|------------------------|--------------------------|--
B|------------------------|--------------------------|--
G|-----2--2p0--2/4--0--0--|--------------0-----------|--
D|--0---------------------|--------4--------4-----4--|--
A|------------------------|-----2-----2--------2-----|--
E|------------------------|--0-----------------------|--
http://www.guitartabcreator.com
Guitar Tab Creator is intended to store guitar tab created through the tool. It currently does not support in-line text editing. Any text you place in here will be lost. If you need to comment on your tab, please use the "Tab Notes" section located below.