Untitled

E|--------x--------x--------x--------------|--------x--------x--------x--------x--------|
B|-----3--x-----3--x-----3--x-----3-----3--|-----3--x-----3--x-----3--x-----3--x-----3--|
G|-----0--x-----0--x-----0--x-----0-----0--|-----0--x-----0--x-----0--x-----0--x-----0--|
D|--------x--------x--------x--2-----0-----|--------x--------x--------x--2-----x--0-----|
A|--------x--2-----x--3-----x--------------|--------x--2-----x--3-----x--------x--------|
E|--3-----x--------x--------x--------------|--3-----x--------x--------x--------x--------|

E|-----3--x-----3--x-----3--x-----3-----3--|-----3--x-----3--x-----3--x-----------------|
B|-----3--x-----3--x-----3--x-----3-----3--|-----3--x-----3--x-----3--x-----------------|
G|--------x--------x--------x--------------|--------x--------x--------x-----------------|
D|--------x--------x--------x--2-----0-----|--------x--------x--------x--2-0------------|
A|--------x--2-----x--3-----x--------------|--------x--2-----x--3-----x------3-2-0------|
E|--3-----x--------x--------x--------------|--3-----x--------x--------x-----------------|
Guitar Tab Creator is intended to store guitar tab created through the tool. It currently does not support in-line text editing. Any text you place in here will be lost. If you need to comment on your tab, please use the "Tab Notes" section located below.