The Authors

E|----------------------------------------------
B|---------------------------------------6------
G|--------5----------------9---10--------7------
D|--0--3--5--5--7--10--10--10--10--3--5--5--10--
A|--0--3--3--5--7--7---8---8---8---3--5--5--8---
E|--0--3-----5--7--7---8---8---8---3--5--5--8---



E|----------------------------
B|-------------------------5--
G|-------------------3--5--5--
D|--3--10--3--10--0--3--5--3--
A|--3--8---3--8---0--1--3-----
E|--3--8---3--8---0-----------



E|------------------------
B|--6--5---------------6--
G|--7--7---------------7--
D|--7--7--3--8--10--5--5--
A|--5--5--3--8--8---5--5--
E|--------3--8--8---5--5--



E|------------0-----------
B|--------------------12--
G|--9---9h10------9-------
D|--10--------10--10--12--
A|--8-------------8---10--
E|--8-------------8---10--



E|-----------
B|--------5--
G|-----5--5--
D|-----5--3--
A|--3--3-----
E|-----------



E|------12--13---------------------
B|--10----------10-----------------
G|--10--12------10-----9---10------
D|--0---11--10--9---8--10--10--11--
A|--12--11--10--9---8--8---8---8---
E|--0---11--10--9---8--8---8---8---
http://www.guitartabcreator.com
Guitar Tab Creator is intended to store guitar tab created through the tool. It currently does not support in-line text editing. Any text you place in here will be lost. If you need to comment on your tab, please use the "Tab Notes" section located below.