Risen Corpse Bass

(/) Slide Up  (\) Slide Down  (h) Hammer On  (p) Pull Off  (b) Bend (r) Release (v) Vibrato

E|-------------------------------------------------------------------------
B|-------------------------------------------------------------------------
G|-------------------------------------------------------------------------
D|-------------------------------------------------------------------------
A|-------------------------------------------------------------------------
E|-0--0-0-0--0--0-0-0--1/2--1/2--0--0-0-0--0--0-0-0--3/2--3/2--0--0-0-0----



E|---------------------------------------------
B|---------------------------------------------
G|---------------------------------------------
D|---------------------------------------------
A|---------------------------0-2-3-5-3-2h3h2-3-
E|-0--0-0-0--1/2--1/2--0-2-3-------------------



E|----------------------------------------------------------------------------------------------------
B|----------------------------------------------------------------------------------------------------
G|----------------------------------------------------------------------------------------------------
D|----------------------------------------------------------------------------------------------------
A|----------------------------------------------------------------------------------------------------
E|--1----1--1--1----1----1----1--1--1----1/2----1/2----1----1--1--1----1----1--1--1----3/2----3/2-----



E|------------------------------------------------------------------------------
B|------------------------------------------------------------------------------
G|------------------------------------------------------------------------------
D|------------------------------------------------------------------------------
A|------------------------------------------------------------0--2--3--5--3-----
E|--1----1--1--1----1----1----1--1--1----1/2--1/2----0--2--3--------------------



E|--------------------------------------------------------------------------------------
B|--------------------------------------------------------------------------------------
G|--------------------------------------------------------------------0--2--3--5--3--2--
D|--------------------------------------0--2--3--5--3--2--3--0--2--3--------------------
A|-----------0--2--3--5--3--2--0--2--3--------------------------------------------------
E|--0--2--3-----------------------------------------------------------------------------



E|-----------------------------------------
B|-----------------------------------------
G|-----------------------------------------
D|-----------------------------------------
A|-----------5--3--2--2--2--2--2--2--2--2--
E|--3--2--0--------------------------------



E|------------------------------------------------------------------
B|------------------------------------------------------------------
G|------------------------------------------------------------------
D|------------------------------------------------------------------
A|-------------------------------------------------0--2--3--5--3--2\
E|--0----0--0--0----0--0--0----0--0--0----0--2--3-------------------



E|-------------------------------------------------
B|-------------------------------------------------
G|-------------------------------------------------
D|-------------------------------------------------
A|----------------------------------------5--3--2--
E|--0----0--0--0----0--0--0----0--0--0-------------



E|----------------------------------------------------
B|----------------------------------------------------
G|----------------------------------------------------
D|----------------------------------------------------
A|----------------------------------------------------
E|--1--0----0--0--0--0----3--5----0--0--0--0----7--9--



E|--------------------------
B|--------------------------
G|--------------------------
D|--------------------------
A|--------------------------
E|-0-0-0-0--2/3-3/2-2/1-1-0-



E|-------------------------------------------------------
B|-------------------------------------------------------
G|-------------------------------------------------------
D|-------------------------------------------------------
A|----------------------------2-2--2-2-2--2-2--3-3--3--3-
E|-1-1--1-1-1--1-1--2-2--2--2----------------------------
http://www.guitartabcreator.com
Guitar Tab Creator is intended to store guitar tab created through the tool. It currently does not support in-line text editing. Any text you place in here will be lost. If you need to comment on your tab, please use the "Tab Notes" section located below.