Dementia Bass

(/) Slide Up  (\) Slide Down  (h) Hammer On  (p) Pull Off  (b) Bend (r) Release (v) Vibrato

E|----------------------
B|----------------------
G|----------------------
D|----------------------
A|----------------------
E|--2----2----2----0----



E|--------------------------------------------------------------------------------------------
B|--------------------------------------------------------------------------------------------
G|--------------------------------------------------------------------------------------------
D|--------------------------------------------------------------------------------------------
A|--------------------------------------------------------------------------------------------
E|--2--2--2--2--2--2--2--2--2--2--2--2--2--2--2--2--2--2--2--2--2--2--2--2--2--2--2--2--2--2--



E|--------------------------------------------------------------
B|--------------------------------------------------------------
G|--------------------------------------------------------------
D|--------------------------------------------------------------
A|--------------------------------------------------------------
E|--2--2--2--2--2--2--2--2--2--2--2----0--0--0----0--0--0-------



E|----------------------------------------------------------------------------------
B|----------------------------------------------------------------------------------
G|----------------------------------------------------------------------------------
D|----------------------------------------------------------------------------------
A|----------------------------------------------------------------------------------
E|--2----2--2--2----2----2--2----2/3----2----2----2--2--2----2----2--2--2----2----2\



E|---------------------------------------------------------------
B|---------------------------------------------------------------
G|---------------------------------------------------------------
D|---------------------------------------------------------------
A|---------------------------------------------4--3--------------
E|--0--0--0----0--0--0----0--0--0--0--0--0--2--------4--2--0--1--



E|---------------------------------------------------------------
B|---------------------------------------------------------------
G|---------------------------------------------------------------
D|-------------------------9--8----------------11--10------------
A|-----4--3-------------7--------9--7--6----9----------11--9--8--
E|--2--------4--2--1---------------------------------------------



E|-------------------------------------
B|-------------------------------------
G|-------------------------------------
D|-------------------------------------
A|-------------------------------------
E|--2--3--0--0--0--0----2--3--5--3--2--



E|-------------------------
B|-------------------------
G|-------------------------
D|-------------------------
A|-------------------------
E|--2----2--2--1--2--1--0--



E|----------------------------------------------------------
B|----------------------------------------------------------
G|----------------------------------------------------------
D|----------------------------------------------------------
A|-----4--3----------------------4--3-----------------------
E|--2--------4--2--1--2--1----2--------4--2--1--0--0--0--0--
http://www.guitartabcreator.com
Guitar Tab Creator is intended to store guitar tab created through the tool. It currently does not support in-line text editing. Any text you place in here will be lost. If you need to comment on your tab, please use the "Tab Notes" section located below.