Sand Sea

(/) Slide Up  (\) Slide Down  (h) Hammer On  (p) Pull Off  (b) Bend (r) Release (v) Vibrato
E|--------------------------0--0--0--0--0--0------------0---0---0---0---0---0-----------0--0-----
B|--------------------------0--0--0--0--0--0------------0---0---0---0---0---0-----------0--0-----
G|-----------------------------------------------------------------------------------------------
D|-----7/9-----7/9-----7/9--9--9--9--9--9--9-----12\11--11--11--11--11--11--11-----7/9--9--9-----
A|-----5-7-----5-7-----5-7--7--7--7--7--7--7-----10-9---9---9---9---9---9---9------5-7--7--7-----
E|--0-------0-------0-------------------------0-----------------------------0---0----------------



E|--0--0--0--0------------0---0---0---0---0---0------
B|--0--0--0--0------------0---0---0---0---0---0------
G|---------------------------------------------------
D|--9--9--9--9-----14/11--11--11--11--11--11--11-----
A|--7--7--7--7-----12-9---9---9---9---9---9---9------
E|--------------0------------------------------------



E|--------------------------------------------------------3--3--3--3--3--3--3--3--3--0--0--0--0--0--
B|--5--5--5--5--5--5--5--5--5--3--3--3--3--3--3--3--3--3--3--3--3--3--3--3--3--3--3--0--0--0--0--0--
G|--4--4--4--4--4--4--4--4--4--2--2--2--2--2--2--2--2--2--0--0--0--0--0--0--0--0--0--2--2--2--2--2--
D|--2--2--2--2--2--2--2--2--2--0--0--0--0--0--0--0--0--0--0--0--0--0--0--0--0--0--0--2--2--2--2--2--
A|--2--2--2--2--2--2--2--2--2--0--0--0--0--0--0--0--0--0--2--2--2--2--2--2--2--2--2--0--0--0--0--0--
E|--0--0--0--0--0--0--0--0--0-----------------------------3--3--3--3--3--3--3--3--3-----------------



E|--0--0--0--0--3--3--3--3--3--3--3--3--3-----------------------------0--0--0--0--0--0--0--0--0--2--
B|--0--0--0--0--3--3--3--3--3--3--3--3--3--3--3--3--3--3--3--3--3--3--0--0--0--0--0--0--0--0--0--3--
G|--2--2--2--2--5--5--5--5--5--5--5--5--5--2--2--2--2--2--2--2--2--2--2--2--2--2--2--2--2--2--2--4--
D|--2--2--2--2--5--5--5--5--5--5--5--5--5--0--0--0--0--0--0--0--0--0--2--2--2--2--2--2--2--2--2--4--
A|--0--0--0--0--3--3--3--3--3--3--3--3--3--0--0--0--0--0--0--0--0--0--0--0--0--0--0--0--0--0--0--2--
E|--------------3--3--3--3--3--3--3--3--3--------------------------------------------------------2--



E|--2--2--2--2--2--2--2--2--------------------------------------------------------3--3--3--3--3--3--
B|--3--3--3--3--3--3--3--3--5--5--5--5--5--5--5--5--5--3--3--3--3--3--3--3--3--3--3--3--3--3--3--3--
G|--4--4--4--4--4--4--4--4--4--4--4--4--4--4--4--4--4--2--2--2--2--2--2--2--2--2--0--0--0--0--0--0--
D|--4--4--4--4--4--4--4--4--2--2--2--2--2--2--2--2--2--0--0--0--0--0--0--0--0--0--0--0--0--0--0--0--
A|--2--2--2--2--2--2--2--2--2--2--2--2--2--2--2--2--2--0--0--0--0--0--0--0--0--0--2--2--2--2--2--2--
E|--2--2--2--2--2--2--2--2--0--0--0--0--0--0--0--0--0-----------------------------3--3--3--3--3--3--



E|--3--3--3--0--0--0--0--0--0--0--0--0--3--3--3--3--3--3--3--3--3-----------------------------2--2--
B|--3--3--3--0--0--0--0--0--0--0--0--0--3--3--3--3--3--3--3--3--3--3--3--3--3--3--3--3--3--3--3--3--
G|--0--0--0--2--2--2--2--2--2--2--2--2--5--5--5--5--5--5--5--5--5--2--2--2--2--2--2--2--2--2--4--4--
D|--0--0--0--2--2--2--2--2--2--2--2--2--5--5--5--5--5--5--5--5--5--0--0--0--0--0--0--0--0--0--4--4--
A|--2--2--2--0--0--0--0--0--0--0--0--0--3--3--3--3--3--3--3--3--3--0--0--0--0--0--0--0--0--0--2--2--
E|--3--3--3-----------------------------3--3--3--3--3--3--3--3--3-----------------------------2--2--



E|--2--2--2--2--2--2--0--0--0--0--0--0--0--0--0--
B|--3--3--3--3--3--3--0--0--0--0--0--0--0--0--0--
G|--4--4--4--4--4--4--1--1--1--1--1--1--1--1--1--
D|--4--4--4--4--4--4--2--2--2--2--2--2--2--2--2--
A|--2--2--2--2--2--2--2--2--2--2--2--2--2--2--2--
E|--2--2--2--2--2--2--0--0--0--0--0--0--0--0--0--



E|-----------0--0--0--0--0--0----------0--0--0--0--0--0--------0--0--0--0--0--0--0----------0--0--
B|-----------0--0--0--0--0--0----------0--0--0--0--0--0--------0--0--0--0--0--0--0----------0--0--
G|-----4--4--4--4--4--4--4--4-----7\6--6--6--6--6--6--6-----4--4--4--4--4--4--4--4-----9\6--6--6--
D|-----0--2--2--2--2--2--2--2-----5-4--4--4--4--4--4--4-----0--2--2--2--2--2--2--2-----7-4--4--4--
A|-----0--2--2--2--2--2--2--2-----5-4--4--4--4--4--4--4-----0--2--2--2--2--2--2--2-----7-4--4--4--
E|--0--0--0--0--0--0--0--0--0--0----0--0--0--0--0--0--0--0--0--0--0--0--0--0--0--0--0-------0--0--



E|--0--0--0--0-----0--0--0--0--0--0--0--0----------0--0--0--0--0--0-----------0--0--0--0--0--0--
B|--0--0--0--0-----0--0--0--0--0--0--0--0----------0--0--0--0--0--0-----------0--0--0--0--0--0--
G|--6--6--6--6-----4--4--4--4--4--4--4--4-----7\6--6--6--6--6--6--6-----4--4--4--4--4--4--4--4--
D|--4--4--4--4-----0--2--2--2--2--2--2--2-----5-4--4--4--4--4--4--4-----0--2--2--2--2--2--2--2--
A|--4--4--4--4-----0--2--2--2--2--2--2--2-----5-4--4--4--4--4--4--4-----0--2--2--2--2--2--2--2--
E|--0--0--0--0--0--0--0--0--0--0--0--0--0--0-------0--0--0--0--0--0--0--0--0--0--0--0--0--0--0--



E|-----0--0--
B|-----0--0--
G|-----9--6--
D|-----7--4--
A|-----7--4--
E|--0--0--0--



E|------14--------14--15h14----------------------------------------------------------------------
B|--12-----------------------15------------------------------------------------------------------
G|-----------------------------------------------------------------------------------------------
D|---------------------------------------------19------------------------------------------------
A|-----------------------------------------------------------------------------------------------
E|-----------------------------------------------------------------------------------------------



E|--------0----2--3--5--------7--3--5h3--2----3--5--0-------------------0-------------------------
B|-----0-------------------------------------------------------------3-----0----------------------
G|--2---------------------------------------------------------------------------------------------
D|------------------------------------------------------------------------------------------------
A|------------------------------------------------------------------------------------------------
E|------------------------------------------------------------------------------------------------



E|--------0----2--3--5----------7--3--5h3--2----3--5--0-------------------------------------------
B|-----0-------------------------------------------------------------3--0-------------------------
G|--2----------------------------------------------------------------------2----------------------
D|------------------------------------------------------------------------------------------------
A|------------------------------------------------------------------------------------------------
E|------------------------------------------------------------------------------------------------



E|--12------------------------5---------------------------------
B|-------------------------5------------------------------7-----
G|--------------7--------------------5--------------------------
D|--------------------------------------5--------------7--------
A|--------------------------------------------------------------
E|--------------------------------------------------------------



E|--------0----2--3--5--------7--3--5h3--2----3--5--0---------0---------10p7p0-------------------
B|-----0---------------------------------------------------3-----0--------------10p8p0--7--------
G|--2--------------------------------------------------------------------------------------------
D|-----------------------------------------------------------------------------------------------
A|-----------------------------------------------------------------------------------------------
E|-----------------------------------------------------------------------------------------------



E|----------0-----0----0--2--3--5--------7--3--5h3--2--3--5h3----5--7h5----3--5h3----2--3h2----0--
B|-----0-------0----------------------------------------------------------------------------------
G|--2---------------------------------------------------------------------------------------------
D|------------------------------------------------------------------------------------------------
A|------------------------------------------------------------------------------------------------
E|------------------------------------------------------------------------------------------------



E|------------------------------------------------------------------------0-------------0-------
B|--3/5------3p0--------------------------------------------------------------------------------
G|----------------2----------0-------0---------------------------9--7--9-------9--7--9----------
D|--------------------------------4-----4--2--0-------------------------------------------------
A|----------------------------------------------------------------------------------------------
E|----------------------------------------------------------------------------------------------



E|-----------0------------0----------------------------------------10--12--14--15--17--19--17--
B|--------8---------7--5---------8--8--10------10--12--12--------------------------------------
G|--7--9---------------------------------------------------------------------------------------
D|---------------------------------------------------------------------------------------------
A|---------------------------------------------------------------------------------------------
E|---------------------------------------------------------------------------------------------



E|--19--17--19--
B|--------------
G|--------------
D|--------------
A|--------------
E|--------------



E|-----------0---------------0---------------0------------0---------------0----------------0----
B|-------------------------------------------------------------------------------8--8--10-------
G|----------------------------------------7---------6--4---------7--7--9------------------------
D|--9--7--9---------9--7--9---------7--9--------------------------------------------------------
A|----------------------------------------------------------------------------------------------
E|----------------------------------------------------------------------------------------------



E|--------------0----------0--12------12------12------12--
B|--10--10--12---------15-----------------15------15------
G|--------------------------------------------------------
D|--------------------------------------------------------
A|--------------------------------------------------------
E|--------------------------------------------------------
http://www.guitartabcreator.com
Guitar Tab Creator is intended to store guitar tab created through the tool. It currently does not support in-line text editing. Any text you place in here will be lost. If you need to comment on your tab, please use the "Tab Notes" section located below.