Fumar Mata Motherpuss

(/) Slide Up  (\) Slide Down  (h) Hammer On  (p) Pull Off  (b) Bend (r) Release (v) Vibrato


E|-----------------------------------------
B|-----------------------------------------
G|-----------------------------------------
D|-----------------------------------------
A|-------6-5-------6-5-------6-5-------3-5-
E|-0-0-0-----0-0-0-----0-0-0-----0-0-0-----



E|-----------------------------------------
B|-----------------------------------------
G|-----------------------------------------
D|-----------------------------------------
A|-------6-5-------6-5-------6-5-----------
E|-0-0-0-----0-0-0-----0-0-0-----0-0-0-6-5-



E|---------------------------------------
B|---------------------------------------
G|---------------------------------------
D|---------------------------------------
A|-------6-5-------6-5-------------------
E|-0-0-0-----0-0-0-----0-0-0-6-5-3-5-3-0-



E|-------------------------------------------------
B|-------------------------------------------------
G|-------------------------------------------------
D|-------------------------------------5-----------
A|-------8-7-8-------8-7-8-------8-7-8---7-5-7-5-0-
E|-0-0-0-------0-0-0-------0-0-0-------------------



E|-------------------------
B|-------------------------
G|-------------------------
D|-------------------------
A|-------8-7-8-------8-7-8-
E|-0-0-0-------0-0-0-------



E|-------------------
B|-------------------
G|-------------------
D|-7---6---7---7-6---
A|---8---7---8-----7-
E|-------------------



E|-------------------------
B|-------------------------
G|-------------------------
D|---------------------5-8-
A|-----------------4-7-----
E|-0-0-0-0-0-1-0-0---------



E|-------------------------
B|-------------------------
G|-------------------------
D|---------------------2-3-
A|-----------------2-3-----
E|-0-0-0-0-0-1-0-0---------



E|---------------------------------------
B|---------------------------------------
G|---------------------------------------
D|---------------------------------------
A|-------8-7-------8-7-------8-7-------5-
E|-0-0-0-----0-0-0-----0-0-0-----0-0-0---



E|---------------------------------------
B|---------------------------------------
G|---------------------------------------
D|---------------------------------------
A|-------8-7-------8-7-------8-7-------3-
E|-0-0-0-----0-0-0-----0-0-0-----0-0-0---



E|-----------------------------------------------------------------------------
B|-----------------------------------------------------------------------------
G|-----------------------------------------------------------------------------
D|-----------------------------------------------------------------------------
A|-----------------------------------------------------------------------------
E|-0-0-0-2-3-0-0-0-2-3-0-0-0-2-3-0-0-0-2-0-0-0-2-3-0-0-0-2-3-0-0-0-2-3-0-0-0-0-
http://www.guitartabcreator.com
Guitar Tab Creator is intended to store guitar tab created through the tool. It currently does not support in-line text editing. Any text you place in here will be lost. If you need to comment on your tab, please use the "Tab Notes" section located below.