"Maximum the hormone"

Here is the tab I made for you guys, due to the massive amount of requests! 
This is my first tab, so go easy on me! :)
Enjoy and remember to keep it heavy!! Maximum the Hormone rules!! \m/

Song: "Maximum the hormone"
By: Maximum the Hormone
Album: 'Greatest the Hits 2011-2011'
Tabbed by: TheMetalMan1112!
Tuning: Drop C (C-G-C-F-A-D)

------------------------------------------------------------------------------------------------

(/) Slide Up (\) Slide Down (h) Hammer On (p) Pull Off (b) Bend (r) Release (v) Vibrato
<#> Natural Harmonic (|: & :|) Repeat Signs (#) Tied / Held-Over Notes

OPENING RIFF:
D|----------------------|---------------------------|
A|o---------------------|--------------------------o|
F|----------------------|---------------------------|
C|----------------------|---------------------------|
G|o---------------------|--------------------------o|
C|----0-----12-----0----|----11----0----10----12----| (x3)

D|----------------------|---------------------------|
A|----------------------|---------------------------|
F|----------------------|---------------------------|
C|----------------------|----1-----0-----1~---------|
G|----------------------|----1-----0-----1~---------|
C|----0-----12-----0-0--|----1-----0-----1~---------|

INTRO A:
D|----------------------|---------------------------|
A|o---------------------|--------------------------o|
F|----------------------|---------------------------|
C|----0------1-----0----|----3-----0----1-----2-----|
G|o---0------1-----0----|----3-----0----1-----2----o|
C|----0------1-----0----|----3-----0----1-----2-----| (x8)

INTRO B:
D|----------------------|---------------------------|
A|o---------------------|--------------------------o|
F|----------------------|---------------------------|
C|----0----/12-----0----|----10----0----10----12----|
G|o---0----/12-----0----|----10----0----10----12---o|
C|----0----/12-----0----|----10----0----10----12----| (x4)

INTRO C:
D|----------------------|---------------------------|
A|o---------------------|--------------------------o|
F|----10-----\7--(7)----|---10----10---\7---(7)-----|
C|----10-----\7--(7)----|---10----10---\7---(7)-----|
G|o---------------------|--------------------------o|
C|----------------------|---------------------------| (x2)

*Bass riff starts (this is where the first meditation scene begins - the guitar breaks here)*

[First Meditation Scene]

*Towards the end, slowly fade in natural harmonic the fourth time into chant*
D|----------------------|---------------------------|
A|------------<5>-------|---------<5>---------------|
F|----------------------|---------------------------|
C|----------------------|---------------------------|
G|----------------------|---------------------------|
C|----------------------|---------------------------|

VERSE I:
D|----------------------|---------------------------|
A|o---------------------|--------------------------o|
F|----------------------|---------------------------|
C|----0-----10-----12---|----0----10----11----12----|
G|o---0-----10-----12---|----0----10----11----12---o|
C|----0-----10-----12---|----0----10----11----12----| (x8)

*Bass riff start up again. However, this time, the guitar doesn't break for very long.
The guitar also seems like it has a sort of echo effect added to make it sound like
two guitars are playing at different times. As soon as the whispers start, the guitar riff kicks in.*

MEDITATION RIFF A: (Second Meditation Scene)
*Clean guitar sound (with or without echo - your choice)
D|----------------------|---------------------------|
A|----------------------|---------------------------|
F|-------5------5-------|--7--------5-------7--5----|
C|----7------7-------7--|--------7------7-----------|
G|----------------------|---------------------------|
C|----------------------|---------------------------|

D|----------------------|---------------------------|
A|----------------------|--------------------8------|
F|-------5------5-------|--5--------5---------------|
C|----7------7-------7--|--------7-------7----------|
G|----------------------|---------------------------|
C|----------------------|---------------------------|

D|----------------------|--------------------8------|
A|---8---6-------6---8--|--8--------6---------------|
F|----------5-----------|--------5-------5----------|
C|----------------------|---------------------------|
G|----------------------|---------------------------|
C|----------------------|---------------------------|

D|-------------------8--|---------------------------|
A|---8---6-------6------|--8-----6------------------|
F|----------5-----------|-----------5\--------------|
C|----------------------|---------------------------|
G|----------------------|---------------------------|
C|----------------------|---------------------------|

VERSE II (Riff is the same as Verse I):
D|----------------------|---------------------------|
A|o---------------------|--------------------------o|
F|----------------------|---------------------------|
C|----0-----10-----12---|----0----10----11----12----|
G|o---0-----10-----12---|----0----10----11----12---o|
C|----0-----10-----12---|----0----10----11----12----| (x8)


PRE-CHORUS:
*Riff happens twice without drums, then the singer goes 'Ha-ha-ha-ha!'*
D|----------------------|---------------------------|
A|--------------9----8--|-----------------9-----8---|
F|----7--10---7----0----|-----7--10----7-----0------|
C|--0-------0-----------|--0--------0---------------|
G|----------------------|---------------------------|
C|----------------------|---------------------------|

D|----------------------|---------------------------|
A|--------------9----8--|-----------------9-----8---|
F|----7--10---7----0----|-----7--10----7-----0------|
C|--0-------0-----------|--0--------0---------------|
G|----------------------|---------------------------|
C|----------------------|---------------------------|

*Singer starts singing/rapping*
D|----------------------|---------------------------|
A|o-------------9----8--|-----------------9----8---o|
F|----7--10---7----0----|-----7--10----7----0-------|
C|--0-------0-----------|--0--------0---------------|
G|o---------------------|--------------------------o|
C|----------------------|---------------------------| (x8)

CHORUS: (Singer starts screaming really fast. This is A.K.A the "Stop Motion Part")
D|----------------------|---------------------------|
A|o---------------------|---------------------------|
F|----------------------|---------------------------|
C|-0-10-12-0-10-12-0-13-|--0-10-12-0-10-13-12v------|
G|o---------------------|---------------------------|
C|----------------------|---------------------------|

D|----------------------|---------------------------|
A|----------------------|--------------------------o|
F|----------------------|---------------------------|
C|-0-10-12-0-10-12-0-13-|--0-10-12-0-10-13-12v------|
G|----------------------|--------------------------o|
C|----------------------|---------------------------| (x2)

RECAP OF OPENING RIFF:
D|----------------------|---------------------------|
A|----------------------|---------------------------|
F|----------------------|---------------------------|
C|----------------------|---------------------------|
G|----------------------|---------------------------|
C|----0-----12-----0----|----11----0----10----12----|

D|----------------------|---------------------------|
A|----------------------|---------------------------|
F|----------------------|---------------------------|
C|----------------------|----1-----0-----1~---------|
G|----------------------|----1-----0-----1~---------|
C|----0-----12-----0-0--|----1-----0-----1~---------|

INTRO A:
D|----------------------|---------------------------|
A|o---------------------|--------------------------o|
F|----------------------|---------------------------|
C|----0------1-----0----|----3-----0----1-----2-----|
G|o---0------1-----0----|----3-----0----1-----2----o|
C|----0------1-----0----|----3-----0----1-----2-----| (x4)

INTRO B:
D|----------------------|---------------------------|
A|o---------------------|--------------------------o|
F|----------------------|---------------------------|
C|----0----/12-----0----|----10----0----10----12----|
G|o---0----/12-----0----|----10----0----10----12---o|
C|----0----/12-----0----|----10----0----10----12----| (x4)

INTRO C:
D|----------------------|---------------------------|
A|o---------------------|--------------------------o|
F|----10-----\7--(7)----|---10----10---\7---(7)-----|
C|----10-----\7--(7)----|---10----10---\7---(7)-----|
G|o---------------------|--------------------------o|
C|----------------------|---------------------------| (x2)

*Bass riff start up for the third and final time.
THIS time, the guitar breaks for the first three verses of chant.
The fourth time into chant, the guitar riff kicks in.*

MEDITATION RIFF B: [Final Meditation Scene]
*Fourth time into chant*
D|----------------------|---------------------------|
A|----------------------|---------------------------|
F|----------------------|---------------------------|
C|---------------12-----|---------10----------------|
G|----------------------|---------------------------|
C|--0-----10--12-----0--|---12---------0-----0------|

D|----------------------|---------------------------|
A|----------------------|---------------------------|
F|----------------------|---------------------------|
C|---------------12-----|---------10----------------|
G|----------------------|---------------------------|
C|--0-----10--12-----0--|---12---------0-----0------|

D|----------------------|---------------------------|
A|----------------------|---------------------------|
F|----------------------|---------------------------|
C|---------------12-----|---------10----------------|
G|----------------------|---------------------------|
C|--0-----10--12-----0--|---12---------0-----0------|

D|----------------------|---------------------------|
A|----------------------|---------------------------|
F|----------------------|---------------------------|
C|----0-----------------|-------(0)-----------------|
G|----0-----------------|-------(0)-----------------|
C|----0-----------------|-------(0)-----------------|

VERSE III (Riff is the same as Verse I):
D|----------------------|---------------------------|
A|o---------------------|--------------------------o|
F|----------------------|---------------------------|
C|----0-----10-----12---|----0----10----11----12----|
G|o---0-----10-----12---|----0----10----11----12---o|
C|----0-----10-----12---|----0----10----11----12----| (x8)

PRE-CHORUS:
*Riff happens twice without drums, then the singer goes 'Ha-ha-ha-ha!'*
D|----------------------|---------------------------|
A|--------------9----8--|-----------------9-----8---|
F|----7--10---7----0----|-----7--10----7-----0------|
C|--0-------0-----------|--0--------0---------------|
G|----------------------|---------------------------|
C|----------------------|---------------------------|

D|----------------------|---------------------------|
A|--------------9----8--|-----------------9-----8---|
F|----7--10---7----0----|-----7--10----7-----0------|
C|--0-------0-----------|--0--------0---------------|
G|----------------------|---------------------------|
C|----------------------|---------------------------|

*Singer starts singing/rapping*
D|----------------------|---------------------------|
A|o-------------9----8--|-----------------9----8---o|
F|----7--10---7----0----|-----7--10----7----0-------|
C|--0-------0-----------|--0--------0---------------|
G|o---------------------|--------------------------o|
C|----------------------|---------------------------| (x8)

CHORUS: (Singer starts screaming really fast. This is A.K.A the "Stop Motion Part")
D|----------------------|---------------------------|
A|o---------------------|---------------------------|
F|----------------------|---------------------------|
C|-0-10-12-0-10-12-0-13-|--0-10-12-0-10-13-12v------|
G|o---------------------|---------------------------|
C|----------------------|---------------------------|

D|----------------------|---------------------------|
A|----------------------|--------------------------o|
F|----------------------|---------------------------|
C|-0-10-12-0-10-12-0-13-|--0-10-12-0-10-13-12v------|
G|----------------------|--------------------------o|
C|----------------------|---------------------------| (x2)

CHORUS RIFF II: (Towards the End)
*Variation to the previous Chorus Riff*
D|----------------------|---------------------------|
A|----------------------|---------------------------|
F|----------------------|---------------------------|
C|----------------------|---------------------------|
G|----------------------|---------------------------|
C|-0-10-12-0-10-12-0-13-|---0-10-12-0-10-13-0-12----|

D|----------------------|---------------------------|
A|----------------------|---------------------------|
F|----------------------|---------------------------|
C|----------------------|---------------------------|
G|----------------------|---------------------------|
C|-0-10-12-0-10-12-0-13-|---0-10-12-0-10-13-0-12----|

D|----------------------|---------------------------|
A|----------------------|---------------------------|
F|----------------------|---------------------------|
C|----------------------|---------------------------|
G|----------------------|---------------------------|
C|-0-10-12-0-10-12-0-13-|---0-10-12-0-10-13-0-12----|

D|----------------------|---------------------------|
A|----------------------|---------------------------|
F|----------------------|---------------------------|
C|----------------------|---------------------------|
G|----------------------|---------------------------|
C|-0-10-12-0-10-12-0-13-|---0-10-12-13-12\----------|

CHORUS: (Singer starts screaming really fast. This is A.K.A the "Stop Motion Part")
*Last Chorus before the epic ending!*
D|----------------------|---------------------------|
A|o---------------------|---------------------------|
F|----------------------|---------------------------|
C|-0-10-12-0-10-12-0-13-|--0-10-12-0-10-13-12v------|
G|o---------------------|---------------------------|
C|----------------------|---------------------------|

D|----------------------|---------------------------|
A|----------------------|--------------------------o|
F|----------------------|---------------------------|
C|-0-10-12-0-10-12-0-13-|--0-10-12-0-10-13-12v------|
G|----------------------|--------------------------o|
C|----------------------|---------------------------| (x2)

ENDING RIFF: (Power Chord Pivot)
*Extremely Fast! Three times with cymbal stops, and last time drums fill in*
D|----------------------|---------------------------|
A|----------------------|---------------------------|
F|------10------10----10|-----10------10------10----|
C|--12--10--12--10-12-10|-12--10--12--10--12--10----|
G|--12------12-----12---|-12------12------12--------|
C|--12------12-----12---|-12------12------12--------|

D|----------------------|---------------------------|
A|----------------------|---------------------------|
F|------10------10----10|-----10------10------10----|
C|--12--10--12--10-12-10|-12--10--12--10--12--10----|
G|--12------12-----12---|-12------12------12--------|
C|--12------12-----12---|-12------12------12--------|

*Singer kicks in screaming until the end! Go crazy!!!*
D|----------------------|---------------------------|
A|----------------------|---------------------------|
F|------10------10----10|-----10------10------10----|
C|--12--10--12--10-12-10|-12--10--12--10--12--10----|
G|--12------12-----12---|-12------12------12--------|
C|--12------12-----12---|-12------12------12--------|

D|----------------------|---------------------------|
A|----------------------|---------------------------|
F|------10------10----10|-----10------10------10----|
C|--12--10--12--10-12-10|-12--10--12--10--12--10----|
G|--12------12-----12---|-12------12------12--------|
C|--12------12-----12---|-12------12------12--------|

D|----------------------|---------------------------|
A|----------------------|---------------------------|
F|------10------10----10|-----10------10------10----|
C|--12--10--12--10-12-10|-12--10--12--10--12--10----|
G|--12------12-----12---|-12------12------12--------|
C|--12------12-----12---|-12------12------12--------|

D|----------------------|---------------------|
A|----------------------|---------------------|
F|------10------10----10|-----10--------------|
C|--12--10--12--10-12-10|-12--10--12~---------|
G|--12------12-----12---|-12------12~---------|
C|--12------12-----12---|-12------12~---------|

Thank you all for using this tab! Leave your feedback and I hope this helped! :)

~ THEMETALMAN1112! (www.youtube.com/TheMetalMan1112)
Thanks to ---> http://www.guitartabcreator.com for helping my create this tab for you guys! ^_^
Guitar Tab Creator is intended to store guitar tab created through the tool. It currently does not support in-line text editing. Any text you place in here will be lost. If you need to comment on your tab, please use the "Tab Notes" section located below.