Please Myself

(/) Slide Up  (\) Slide Down  (h) Hammer On  (p) Pull Off  (b) Bend (r) Release (v) Vibrato
E|-------------------------------------------------------------------------
B|-------------------------------------------------------------------------
G|-------------------------------------------------------------------------
D|----------12----------------------------------12-------------------------
A|--12--14------------------------------12--14-----------------------------
E|--------------12----15--15--12--------------------12----15--15--9--------



E|-------------------------------------------------------------------------
B|-------------------------------------------------------------------------
G|-------------------------------------------------------------------------
D|----------12----------------------------------12-------------------------
A|--12--14------------------------------12--14-----------------------------
E|--------------12----15--15--12--------------------12----15--15--9--------



E|----------------------------------------------------------------------------------------------
B|----------------------------------------------------------------------------------------------
G|----------------------------------------------------------------------------------------------
D|--5--5--5--5--7--7--7----------12----------------------------------12-------------------------
A|--5--5--5--5--7--7--7--12--14------------------------------12--14-----------------------------
E|--5--5--5--5--7--7--7--------------12----15--15--12--------------------12----15--15--9--------



E|-------------------------------------------------------------------------
B|-------------------------------------------------------------------------
G|-------------------------------------------------------------------------
D|----------12----------------------------------12-------------------------
A|--12--14------------------------------12--14-----------------------------
E|--------------12----15--15--12--------------------12----15--15--9--------



E|----------------------------------------------------------------------------------------------
B|----------------------------------------------------------------------------------------------
G|----------------------------------------------------------------------------------------------
D|--5--5--5--5--7--7--7----------12----------------------------------12-------------------------
A|--5--5--5--5--7--7--7--12--14------------------------------12--14-----------------------------
E|--5--5--5--5--7--7--7--------------12----15--15--12--------------------12----15--15--9--------



E|------------------------------------------------------------------------
B|------------------------------------------------------------------------
G|----------------------------------7--5----------------------------------
D|--15--14--12--0----------3--5--3--7--5----------------------------------
A|--15--14--12--0----------3--5--3--5--3----------------------------------
E|--15--14--12--0----------3--5--3----------------------------------------



E|----------------------------
B|----------------------------
G|----------------------------
D|-------------------5--5--3--
A|-----5\0-----0--2--5--5--3--
E|--0-------0--------5--5--3--
http://www.guitartabcreator.com
Guitar Tab Creator is intended to store guitar tab created through the tool. It currently does not support in-line text editing. Any text you place in here will be lost. If you need to comment on your tab, please use the "Tab Notes" section located below.