New Song In Normal Tuning

(/) Slide Up  (\) Slide Down  (h) Hammer On  (p) Pull Off  (b) Bend (r) Release (v) Vibrato


E|--------------------------------------------------------------------------
B|--------------------------------------------------------------------------
G|--------------------------------------------------------------------------
D|----------------------------------------------14----15--14--12------------
A|--------------------------------------12--14--------------------15--------
E|--5------8--0--------5--------8--0----------------------------------12----



E|------------------------------------------
B|------------------------------------------
G|-----------5---------------------5--------
D|--5--7--7--5--3--2------5--7--7--5--3--2--
A|--5--7--7--3--3--2------5--7--7--3--3--2--
E|--3--5--5-----1--0------3--5--5-----1--0--



E|-----------------------4--4--
B|-----------------------3--3--
G|-----------------------4--4--
D|--------------5--3--2--2--2--
A|--------7--7--3--3--2--2--2--
E|--3--3--5--5-----1--0--0--0--
http://www.guitartabcreator.com
Guitar Tab Creator is intended to store guitar tab created through the tool. It currently does not support in-line text editing. Any text you place in here will be lost. If you need to comment on your tab, please use the "Tab Notes" section located below.