Random riff 22.1.12

(/) Slide Up  (\) Slide Down  (h) Hammer On  (p) Pull Off  (b) Bend (r) Release (v) Vibrato


E|----------------------------------
B|----------------------------------
G|----------------------------------
D|----------------------------------
A|----------------------------------
E|--0--0--10--0h7-0h6-0h5--00-0--10--0h7-0h6-0h5--00-0-

E|----------------------------------
B|----------------------------------
G|----------------------------------
D|---------------------------7--7--5--5--2-2
A|---------------------------7--7--5--5--2-2
E|--0--0--10--0h7-0h6-0h5--0-5--5--3--3--0-0--0--0--10--0h7-0h6-0h5

E|----------------------------------
B|----------------------------------
G|----------------------------------
D|---------------------------7--7--5--5--
A|---------------------------7--7--5--5--
E|--0--0--10--0h7-0h6-0h5--0-5--5--3--3--353-00-0--10--0h7-0h6-0h5--00-0-









http://www.guitartabcreator.com
Guitar Tab Creator is intended to store guitar tab created through the tool. It currently does not support in-line text editing. Any text you place in here will be lost. If you need to comment on your tab, please use the "Tab Notes" section located below.